  0
SECTION
  2
HEADER
  9
$ACADVER
  1
AC1024
  9
$ACADMAINTVER
 70
     6
  9
$DWGCODEPAGE
  3
ANSI_1252
  9
$INSBASE
 10
0.0
 20
0.0
 30
0.0
  9
$EXTMIN
 10
1.000000000000000E+20
 20
1.000000000000000E+20
 30
1.000000000000000E+20
  9
$EXTMAX
 10
-1.000000000000000E+20
 20
-1.000000000000000E+20
 30
-1.000000000000000E+20
  9
$LIMMIN
 10
0.0
 20
0.0
  9
$LIMMAX
 10
12.0
 20
9.0
  9
$ORTHOMODE
 70
     0
  9
$REGENMODE
 70
     1
  9
$FILLMODE
 70
     1
  9
$QTEXTMODE
 70
     0
  9
$MIRRTEXT
 70
     1
  9
$LTSCALE
 40
1.0
  9
$ATTMODE
 70
     1
  9
$TEXTSIZE
 40
0.2
  9
$TRACEWID
 40
0.05
  9
$TEXTSTYLE
  7
Standard
  9
$CLAYER
  8
0
  9
$CELTYPE
  6
ByLayer
  9
$CECOLOR
 62
   256
  9
$CELTSCALE
 40
1.0
  9
$DISPSILH
 70
     0
  9
$DIMSCALE
 40
1.0
  9
$DIMASZ
 40
0.18
  9
$DIMEXO
 40
0.0625
  9
$DIMDLI
 40
0.38
  9
$DIMRND
 40
0.0
  9
$DIMDLE
 40
0.0
  9
$DIMEXE
 40
0.18
  9
$DIMTP
 40
0.0
  9
$DIMTM
 40
0.0
  9
$DIMTXT
 40
0.18
  9
$DIMCEN
 40
0.09
  9
$DIMTSZ
 40
0.0
  9
$DIMTOL
 70
     0
  9
$DIMLIM
 70
     0
  9
$DIMTIH
 70
     1
  9
$DIMTOH
 70
     1
  9
$DIMSE1
 70
     0
  9
$DIMSE2
 70
     0
  9
$DIMTAD
 70
     0
  9
$DIMZIN
 70
     0
  9
$DIMBLK
  1

  9
$DIMASO
 70
     1
  9
$DIMSHO
 70
     1
  9
$DIMPOST
  1

  9
$DIMAPOST
  1

  9
$DIMALT
 70
     0
  9
$DIMALTD
 70
     2
  9
$DIMALTF
 40
25.4
  9
$DIMLFAC
 40
1.0
  9
$DIMTOFL
 70
     0
  9
$DIMTVP
 40
0.0
  9
$DIMTIX
 70
     0
  9
$DIMSOXD
 70
     0
  9
$DIMSAH
 70
     0
  9
$DIMBLK1
  1

  9
$DIMBLK2
  1

  9
$DIMSTYLE
  2
Standard
  9
$DIMCLRD
 70
     0
  9
$DIMCLRE
 70
     0
  9
$DIMCLRT
 70
     0
  9
$DIMTFAC
 40
1.0
  9
$DIMGAP
 40
0.09
  9
$DIMJUST
 70
     0
  9
$DIMSD1
 70
     0
  9
$DIMSD2
 70
     0
  9
$DIMTOLJ
 70
     1
  9
$DIMTZIN
 70
     0
  9
$DIMALTZ
 70
     0
  9
$DIMALTTZ
 70
     0
  9
$DIMUPT
 70
     0
  9
$DIMDEC
 70
     4
  9
$DIMTDEC
 70
     4
  9
$DIMALTU
 70
     2
  9
$DIMALTTD
 70
     2
  9
$DIMTXSTY
  7
Standard
  9
$DIMAUNIT
 70
     0
  9
$DIMADEC
 70
     0
  9
$DIMALTRND
 40
0.0
  9
$DIMAZIN
 70
     0
  9
$DIMDSEP
 70
    46
  9
$DIMATFIT
 70
     3
  9
$DIMFRAC
 70
     0
  9
$DIMLDRBLK
  1

  9
$DIMLUNIT
 70
     2
  9
$DIMLWD
 70
    -2
  9
$DIMLWE
 70
    -2
  9
$DIMTMOVE
 70
     0
  9
$DIMFXL
 40
1.0
  9
$DIMFXLON
 70
     0
  9
$DIMJOGANG
 40
0.7853981633974483
  9
$DIMTFILL
 70
     0
  9
$DIMTFILLCLR
 70
     0
  9
$DIMARCSYM
 70
     0
  9
$DIMLTYPE
  6

  9
$DIMLTEX1
  6

  9
$DIMLTEX2
  6

  9
$DIMTXTDIRECTION
 70
     0
  9
$LUNITS
 70
     2
  9
$LUPREC
 70
     4
  9
$SKETCHINC
 40
0.1
  9
$FILLETRAD
 40
0.5
  9
$AUNITS
 70
     0
  9
$AUPREC
 70
     0
  9
$MENU
  1
.
  9
$ELEVATION
 40
0.0
  9
$PELEVATION
 40
0.0
  9
$THICKNESS
 40
0.0
  9
$LIMCHECK
 70
     0
  9
$CHAMFERA
 40
0.5
  9
$CHAMFERB
 40
0.5
  9
$CHAMFERC
 40
1.0
  9
$CHAMFERD
 40
0.0
  9
$SKPOLY
 70
     0
  9
$TDCREATE
 40
2456315.779895486
  9
$TDUCREATE
 40
2456315.988228819
  9
$TDUPDATE
 40
2456315.779895497
  9
$TDUUPDATE
 40
2456315.988228831
  9
$TDINDWG
 40
0.0000000116
  9
$TDUSRTIMER
 40
0.0000000116
  9
$USRTIMER
 70
     1
  9
$ANGBASE
 50
0.0
  9
$ANGDIR
 70
     0
  9
$PDMODE
 70
     0
  9
$PDSIZE
 40
0.0
  9
$PLINEWID
 40
0.0
  9
$SPLFRAME
 70
     0
  9
$SPLINETYPE
 70
     6
  9
$SPLINESEGS
 70
     8
  9
$HANDSEED
  5
6D8
  9
$SURFTAB1
 70
     6
  9
$SURFTAB2
 70
     6
  9
$SURFTYPE
 70
     6
  9
$SURFU
 70
     6
  9
$SURFV
 70
     6
  9
$UCSBASE
  2

  9
$UCSNAME
  2

  9
$UCSORG
 10
0.0
 20
0.0
 30
0.0
  9
$UCSXDIR
 10
1.0
 20
0.0
 30
0.0
  9
$UCSYDIR
 10
0.0
 20
1.0
 30
0.0
  9
$UCSORTHOREF
  2

  9
$UCSORTHOVIEW
 70
     0
  9
$UCSORGTOP
 10
0.0
 20
0.0
 30
0.0
  9
$UCSORGBOTTOM
 10
0.0
 20
0.0
 30
0.0
  9
$UCSORGLEFT
 10
0.0
 20
0.0
 30
0.0
  9
$UCSORGRIGHT
 10
0.0
 20
0.0
 30
0.0
  9
$UCSORGFRONT
 10
0.0
 20
0.0
 30
0.0
  9
$UCSORGBACK
 10
0.0
 20
0.0
 30
0.0
  9
$PUCSBASE
  2

  9
$PUCSNAME
  2

  9
$PUCSORG
 10
0.0
 20
0.0
 30
0.0
  9
$PUCSXDIR
 10
1.0
 20
0.0
 30
0.0
  9
$PUCSYDIR
 10
0.0
 20
1.0
 30
0.0
  9
$PUCSORTHOREF
  2

  9
$PUCSORTHOVIEW
 70
     0
  9
$PUCSORGTOP
 10
0.0
 20
0.0
 30
0.0
  9
$PUCSORGBOTTOM
 10
0.0
 20
0.0
 30
0.0
  9
$PUCSORGLEFT
 10
0.0
 20
0.0
 30
0.0
  9
$PUCSORGRIGHT
 10
0.0
 20
0.0
 30
0.0
  9
$PUCSORGFRONT
 10
0.0
 20
0.0
 30
0.0
  9
$PUCSORGBACK
 10
0.0
 20
0.0
 30
0.0
  9
$USERI1
 70
     0
  9
$USERI2
 70
     0
  9
$USERI3
 70
     0
  9
$USERI4
 70
     0
  9
$USERI5
 70
     0
  9
$USERR1
 40
0.0
  9
$USERR2
 40
0.0
  9
$USERR3
 40
0.0
  9
$USERR4
 40
0.0
  9
$USERR5
 40
0.0
  9
$WORLDVIEW
 70
     1
  9
$SHADEDGE
 70
     3
  9
$SHADEDIF
 70
    70
  9
$TILEMODE
 70
     1
  9
$MAXACTVP
 70
    64
  9
$PINSBASE
 10
0.0
 20
0.0
 30
0.0
  9
$PLIMCHECK
 70
     0
  9
$PEXTMIN
 10
1.000000000000000E+20
 20
1.000000000000000E+20
 30
1.000000000000000E+20
  9
$PEXTMAX
 10
-1.000000000000000E+20
 20
-1.000000000000000E+20
 30
-1.000000000000000E+20
  9
$PLIMMIN
 10
0.0
 20
0.0
  9
$PLIMMAX
 10
12.0
 20
9.0
  9
$UNITMODE
 70
     0
  9
$VISRETAIN
 70
     1
  9
$PLINEGEN
 70
     0
  9
$PSLTSCALE
 70
     1
  9
$TREEDEPTH
 70
  3020
  9
$CMLSTYLE
  2
Standard
  9
$CMLJUST
 70
     0
  9
$CMLSCALE
 40
1.0
  9
$PROXYGRAPHICS
 70
     1
  9
$MEASUREMENT
 70
     0
  9
$CELWEIGHT
370
    -1
  9
$ENDCAPS
280
     0
  9
$JOINSTYLE
280
     0
  9
$LWDISPLAY
290
     0
  9
$INSUNITS
 70
     1
  9
$HYPERLINKBASE
  1

  9
$STYLESHEET
  1

  9
$XEDIT
290
     1
  9
$CEPSNTYPE
380
     0
  9
$PSTYLEMODE
290
     1
  9
$FINGERPRINTGUID
  2
{68319782-0318-4855-BB55-19D03B1528CF}
  9
$VERSIONGUID
  2
{FAEB1C32-E019-11D5-929B-00C0DF256EC4}
  9
$EXTNAMES
290
     1
  9
$PSVPSCALE
 40
0.0
  9
$OLESTARTUP
290
     0
  9
$SORTENTS
280
   127
  9
$INDEXCTL
280
     0
  9
$HIDETEXT
280
     1
  9
$XCLIPFRAME
280
     2
  9
$HALOGAP
280
     0
  9
$OBSCOLOR
 70
   257
  9
$OBSLTYPE
280
     0
  9
$INTERSECTIONDISPLAY
280
     0
  9
$INTERSECTIONCOLOR
 70
   257
  9
$DIMASSOC
280
     2
  9
$PROJECTNAME
  1

  9
$CAMERADISPLAY
290
     0
  9
$LENSLENGTH
 40
50.0
  9
$CAMERAHEIGHT
 40
0.0
  9
$STEPSPERSEC
 40
2.0
  9
$STEPSIZE
 40
6.0
  9
$3DDWFPREC
 40
2.0
  9
$PSOLWIDTH
 40
0.25
  9
$PSOLHEIGHT
 40
4.0
  9
$LOFTANG1
 40
1.570796326794897
  9
$LOFTANG2
 40
1.570796326794897
  9
$LOFTMAG1
 40
0.0
  9
$LOFTMAG2
 40
0.0
  9
$LOFTPARAM
 70
     7
  9
$LOFTNORMALS
280
     1
  9
$LATITUDE
 40
37.795
  9
$LONGITUDE
 40
-122.394
  9
$NORTHDIRECTION
 40
0.0
  9
$TIMEZONE
 70
 -8000
  9
$LIGHTGLYPHDISPLAY
280
     1
  9
$TILEMODELIGHTSYNCH
280
     1
  9
$SOLIDHIST
280
     1
  9
$SHOWHIST
280
     1
  9
$DWFFRAME
280
     2
  9
$DGNFRAME
280
     2
  9
$REALWORLDSCALE
290
     1
  9
$INTERFERECOLOR
 62
   256
  9
$CSHADOW
280
     0
  9
$SHADOWPLANELOCATION
 40
0.0
  0
ENDSEC
  0
SECTION
  2
CLASSES
  0
CLASS
  1
ACDBDICTIONARYWDFLT
  2
AcDbDictionaryWithDefault
  3
ObjectDBX Classes
 90
        0
 91
        4
280
     0
281
     0
  0
CLASS
  1
VISUALSTYLE
  2
AcDbVisualStyle
  3
ObjectDBX Classes
 90
     4095
 91
        4
280
     0
281
     0
  0
CLASS
  1
MATERIAL
  2
AcDbMaterial
  3
ObjectDBX Classes
 90
     1153
 91
        4
280
     0
281
     0
  0
ENDSEC
  0
SECTION
  2
TABLES
  0
TABLE
  2
VPORT
  5
8
330
0
100
AcDbSymbolTable
 70
     1
  0
VPORT
  5
29
330
8
100
AcDbSymbolTableRecord
100
AcDbViewportTableRecord
  2
*Active
 70
     0
 10
0.0
 20
0.0
 11
1.0
 21
1.0
 12
0.0
 22
0.0
 13
0.0
 23
0.0
 14
0.5
 24
0.5
 15
0.5
 25
0.5
 16
0.0
 26
0.0
 36
1.0
 17
0.0
 27
0.0
 37
-1000.0
 40
626.7962284899312
 41
1.822857142857143
 42
50.0
 43
993.971830209765
 44
1270.196640443536
 50
0.0
 51
0.0
 71
     0
 72
   100
 73
     1
 74
     3
 75
     0
 76
     0
 77
     0
 78
     0
281
     0
 65
     1
110
0.0
120
0.0
130
0.0
111
1.0
121
0.0
131
0.0
112
0.0
122
1.0
132
0.0
 79
     0
146
0.0
 60
     3
 61
     5
292
     1
282
     1
141
0.0
142
0.0
 63
   250
  0
ENDTAB
  0
TABLE
  2
LTYPE
  5
5
330
0
100
AcDbSymbolTable
 70
     1
  0
LTYPE
  5
14
330
5
100
AcDbSymbolTableRecord
100
AcDbLinetypeTableRecord
  2
ByBlock
 70
     0
  3

 72
    65
 73
     0
 40
0.0
  0
LTYPE
  5
15
330
5
100
AcDbSymbolTableRecord
100
AcDbLinetypeTableRecord
  2
ByLayer
 70
     0
  3

 72
    65
 73
     0
 40
0.0
  0
LTYPE
  5
16
330
5
100
AcDbSymbolTableRecord
100
AcDbLinetypeTableRecord
  2
Continuous
 70
     0
  3
Solid line
 72
    65
 73
     0
 40
0.0
  0
ENDTAB
  0
TABLE
  2
LAYER
  5
2
330
0
100
AcDbSymbolTable
 70
     3
  0
LAYER
  5
10
330
2
100
AcDbSymbolTableRecord
100
AcDbLayerTableRecord
  2
0
 70
     0
 62
     7
  6
Continuous
370
    -3
390
F
347
3E
  0
LAYER
  5
3F
330
2
100
AcDbSymbolTableRecord
100
AcDbLayerTableRecord
  2
ProfileEdges
 70
     0
 62
     7
  6
Continuous
370
    -3
390
F
347
3E
  0
LAYER
  5
40
330
2
100
AcDbSymbolTableRecord
100
AcDbLayerTableRecord
  2
SectionCutEdges
 70
     0
 62
     7
  6
Continuous
370
    -3
390
F
347
3E
  0
ENDTAB
  0
TABLE
  2
STYLE
  5
3
330
0
100
AcDbSymbolTable
 70
     1
  0
STYLE
  5
11
330
3
100
AcDbSymbolTableRecord
100
AcDbTextStyleTableRecord
  2
Standard
 70
     0
 40
0.0
 41
1.0
 50
0.0
 71
     0
 42
0.2
  3
txt
  4

  0
ENDTAB
  0
TABLE
  2
VIEW
  5
6
330
0
100
AcDbSymbolTable
 70
     0
  0
ENDTAB
  0
TABLE
  2
UCS
  5
7
330
0
100
AcDbSymbolTable
 70
     0
  0
ENDTAB
  0
TABLE
  2
APPID
  5
9
330
0
100
AcDbSymbolTable
 70
     1
  0
APPID
  5
12
330
9
100
AcDbSymbolTableRecord
100
AcDbRegAppTableRecord
  2
ACAD
 70
     0
  0
ENDTAB
  0
TABLE
  2
DIMSTYLE
  5
A
330
0
100
AcDbSymbolTable
 70
     1
100
AcDbDimStyleTable
  0
DIMSTYLE
105
27
330
A
100
AcDbSymbolTableRecord
100
AcDbDimStyleTableRecord
  2
Standard
 70
     0
340
11
  0
ENDTAB
  0
TABLE
  2
BLOCK_RECORD
  5
1
330
0
100
AcDbSymbolTable
 70
     1
  0
BLOCK_RECORD
  5
1F
330
1
100
AcDbSymbolTableRecord
100
AcDbBlockTableRecord
  2
*Model_Space
340
22
 70
     0
280
     1
281
     0
  0
BLOCK_RECORD
  5
1B
330
1
100
AcDbSymbolTableRecord
100
AcDbBlockTableRecord
  2
*Paper_Space
340
1E
 70
     0
280
     1
281
     0
  0
BLOCK_RECORD
  5
23
330
1
100
AcDbSymbolTableRecord
100
AcDbBlockTableRecord
  2
*Paper_Space0
340
26
 70
     0
280
     1
281
     0
  0
ENDTAB
  0
ENDSEC
  0
SECTION
  2
BLOCKS
  0
BLOCK
  5
20
330
1F
100
AcDbEntity
  8
0
100
AcDbBlockBegin
  2
*Model_Space
 70
     0
 10
0.0
 20
0.0
 30
0.0
  3
*Model_Space
  1

  0
ENDBLK
  5
21
330
1F
100
AcDbEntity
  8
0
100
AcDbBlockEnd
  0
BLOCK
  5
1C
330
1B
100
AcDbEntity
 67
     1
  8
0
100
AcDbBlockBegin
  2
*Paper_Space
 70
     0
 10
0.0
 20
0.0
 30
0.0
  3
*Paper_Space
  1

  0
ENDBLK
  5
1D
330
1B
100
AcDbEntity
 67
     1
  8
0
100
AcDbBlockEnd
  0
BLOCK
  5
24
330
23
100
AcDbEntity
  8
0
100
AcDbBlockBegin
  2
*Paper_Space0
 70
     0
 10
0.0
 20
0.0
 30
0.0
  3
*Paper_Space0
  1

  0
ENDBLK
  5
25
330
23
100
AcDbEntity
  8
0
100
AcDbBlockEnd
  0
ENDSEC
  0
SECTION
  2
ENTITIES
  0
LINE
  5
41
330
1F
100
AcDbEntity
  8
0
100
AcDbLine
 10
38.07481362694305
 20
-291.9176842709982
 30
0.0
 11
37.68001424142171
 21
5.892541323121311
 31
0.0
  0
LINE
  5
42
330
1F
100
AcDbEntity
  8
0
100
AcDbLine
 10
37.68001424142171
 20
5.892541323121311
 30
0.0
 11
32.09432192862862
 21
11.46528597340555
 31
0.0
  0
LINE
  5
43
330
1F
100
AcDbEntity
  8
0
100
AcDbLine
 10
32.09432192862862
 20
11.46528597340555
 30
0.0
 11
-242.0756417113355
 21
11.63295062613587
 31
0.0
  0
LINE
  5
44
330
1F
100
AcDbEntity
  8
0
100
AcDbLine
 10
-242.0756417113355
 20
11.63295062613587
 30
0.0
 11
-247.7282807942299
 21
6.067128659135082
 31
0.0
  0
LINE
  5
45
330
1F
100
AcDbEntity
  8
0
100
AcDbLine
 10
-247.7282807942299
 20
6.067128659135082
 30
0.0
 11
-251.7111342551553
 21
-291.9577201465563
 31
0.0
  0
LINE
  5
46
330
1F
100
AcDbEntity
  8
0
100
AcDbLine
 10
-251.7111342551553
 20
-291.9577201465563
 30
0.0
 11
-246.1179793789753
 21
-297.4858140318155
 31
0.0
  0
LINE
  5
47
330
1F
100
AcDbEntity
  8
0
100
AcDbLine
 10
-246.1179793789753
 20
-297.4858140318155
 30
0.0
 11
-223.4492334526753
 21
-297.4998973978819
 31
0.0
  0
LINE
  5
48
330
1F
100
AcDbEntity
  8
0
100
AcDbLine
 10
-223.4492334526753
 20
-297.4998973978819
 30
0.0
 11
-221.1553644149614
 21
-295.2031431227738
 31
0.0
  0
LINE
  5
49
330
1F
100
AcDbEntity
  8
0
100
AcDbLine
 10
-221.1553644149614
 20
-295.2031431227738
 30
0.0
 11
7.479994879983623
 21
-295.345170407993
 31
0.0
  0
LINE
  5
4A
330
1F
100
AcDbEntity
  8
0
100
AcDbLine
 10
7.479994879983623
 20
-295.345170407993
 30
0.0
 11
9.746230462032319
 21
-297.6447742734701
 31
0.0
  0
LINE
  5
4B
330
1F
100
AcDbEntity
  8
0
100
AcDbLine
 10
9.746230462032319
 20
-297.6447742734701
 30
0.0
 11
32.41534161786716
 21
-297.6588578664421
 31
0.0
  0
LINE
  5
4C
330
1F
100
AcDbEntity
  8
0
100
AcDbLine
 10
32.41534161786716
 20
-297.6588578664421
 30
0.0
 11
38.07481362694305
 21
-291.9176842709982
 31
0.0
  0
LINE
  5
4D
330
1F
100
AcDbEntity
  8
0
100
AcDbLine
 10
-188.9200446563952
 20
-245.9383124951117
 30
0.0
 11
-186.8045814601616
 21
-38.64085158281073
 31
0.0
  0
LINE
  5
4E
330
1F
100
AcDbEntity
  8
0
100
AcDbLine
 10
-186.8045814601616
 20
-38.64085158281073
 30
0.0
 11
-181.1562391916147
 21
-33.04938889967841
 31
0.0
  0
LINE
  5
4F
330
1F
100
AcDbEntity
  8
0
100
AcDbLine
 10
-181.1562391916147
 20
-33.04938889967841
 30
0.0
 11
-29.36355260121461
 21
-33.14242887264891
 31
0.0
  0
LINE
  5
50
330
1F
100
AcDbEntity
  8
0
100
AcDbLine
 10
-29.36355260121461
 20
-33.14242887264891
 30
0.0
 11
-23.78231643484314
 21
-38.74080334257823
 31
0.0
  0
LINE
  5
51
330
1F
100
AcDbEntity
  8
0
100
AcDbLine
 10
-23.78231643484314
 20
-38.74080334257823
 30
0.0
 11
-24.16240584453783
 21
-246.0404035642024
 31
0.0
  0
LINE
  5
52
330
1F
100
AcDbEntity
  8
0
100
AcDbLine
 10
-50.61210541822827
 20
-258.6083188342199
 30
0.0
 11
-50.66303748316437
 21
-274.6478110621596
 31
0.0
  0
LINE
  5
53
330
1F
100
AcDbEntity
  8
0
100
AcDbLine
 10
-59.71985398130569
 20
-274.6421908988673
 30
0.0
 11
-59.6615516001612
 21
-258.6027078144523
 31
0.0
  0
LINE
  5
54
330
1F
100
AcDbEntity
  8
0
100
AcDbLine
 10
-59.6615516001612
 20
-258.6027078144523
 30
0.0
 11
-66.42140605071197
 21
-251.7323706343568
 31
0.0
  0
LINE
  5
55
330
1F
100
AcDbEntity
  8
0
100
AcDbLine
 10
-66.42140605071197
 20
-251.7323706343568
 30
0.0
 11
-109.0574340024831
 21
-251.7059438030235
 31
0.0
  0
LINE
  5
56
330
1F
100
AcDbEntity
  8
0
100
AcDbLine
 10
-109.0574340024831
 20
-251.7059438030235
 30
0.0
 11
-115.8867858581218
 21
-258.5678459130174
 31
0.0
  0
LINE
  5
57
330
1F
100
AcDbEntity
  8
0
100
AcDbLine
 10
-115.8867858581218
 20
-258.5678459130174
 30
0.0
 11
-115.9237095544251
 21
-264.2572209419156
 31
0.0
  0
LINE
  5
58
330
1F
100
AcDbEntity
  8
0
100
AcDbLine
 10
-115.9237095544251
 20
-264.2572209419156
 30
0.0
 11
-137.3096471805878
 21
-264.2439569716139
 31
0.0
  0
LINE
  5
59
330
1F
100
AcDbEntity
  8
0
100
AcDbLine
 10
-137.3096471805878
 20
-264.2439569716139
 30
0.0
 11
-137.266547008448
 21
-258.5545896031815
 31
0.0
  0
LINE
  5
5A
330
1F
100
AcDbEntity
  8
0
100
AcDbLine
 10
-137.266547008448
 20
-258.5545896031815
 30
0.0
 11
-143.9993116431495
 21
-251.6842859903417
 31
0.0
  0
LINE
  5
5B
330
1F
100
AcDbEntity
  8
0
100
AcDbLine
 10
-143.9993116431495
 20
-251.6842859903417
 30
0.0
 11
-146.7085866143326
 21
-251.6826067168226
 31
0.0
  0
LINE
  5
5C
330
1F
100
AcDbEntity
  8
0
100
AcDbLine
 10
-146.7085866143326
 20
-251.6826067168226
 30
0.0
 11
-153.5510538511849
 21
-258.5444925554776
 31
0.0
  0
LINE
  5
5D
330
1F
100
AcDbEntity
  8
0
100
AcDbLine
 10
-153.5510538511849
 20
-258.5444925554776
 30
0.0
 11
-153.6858242350951
 21
-274.5838807744619
 31
0.0
  0
LINE
  5
5E
330
1F
100
AcDbEntity
  8
0
100
AcDbLine
 10
-162.7427769920914
 20
-274.578260526615
 30
0.0
 11
-162.6006362288617
 21
-258.5388814512635
 31
0.0
  0
LINE
  5
5F
330
1F
100
AcDbEntity
  8
0
100
AcDbLine
 10
-162.6006362288617
 20
-258.5388814512635
 30
0.0
 11
-169.3245574432918
 21
-251.6685887964101
 31
0.0
  0
LINE
  5
60
330
1F
100
AcDbEntity
  8
0
100
AcDbLine
 10
-154.3435975474389
 20
-9.077620033325863
 30
0.0
 11
-154.2783050547046
 21
-1.441988819851103
 31
0.0
  0
LINE
  5
61
330
1F
100
AcDbEntity
  8
0
100
AcDbLine
 10
-154.2783050547046
 20
-1.441988819851103
 30
0.0
 11
-152.8921364320927
 21
-1.442837079389559
 31
0.0
  0
LINE
  5
62
330
1F
100
AcDbEntity
  8
0
100
AcDbLine
 10
-152.8921364320927
 20
-1.442837079389559
 30
0.0
 11
-152.95688436981
 21
-9.078468959473367
 31
0.0
  0
LINE
  5
63
330
1F
100
AcDbEntity
  8
0
100
AcDbLine
 10
-152.95688436981
 20
-9.078468959473367
 30
0.0
 11
-154.3435975474389
 21
-9.077620033325863
 31
0.0
  0
LINE
  5
64
330
1F
100
AcDbEntity
  8
0
100
AcDbLine
 10
-167.3752826759473
 20
-0.0495974340661726
 30
0.0
 11
-167.362512965947
 21
1.334574310306297
 31
0.0
  0
LINE
  5
65
330
1F
100
AcDbEntity
  8
0
100
AcDbLine
 10
-167.362512965947
 20
1.334574310306297
 30
0.0
 11
-165.9765429331846
 21
1.333726293104245
 31
0.0
  0
LINE
  5
66
330
1F
100
AcDbEntity
  8
0
100
AcDbLine
 10
-165.9765429331846
 20
1.333726293104245
 30
0.0
 11
-165.9892139274371
 21
-0.0504455720730694
 31
0.0
  0
LINE
  5
67
330
1F
100
AcDbEntity
  8
0
100
AcDbLine
 10
-165.9892139274371
 20
-0.0504455720730694
 30
0.0
 11
-167.3752826759473
 21
-0.0495974340661726
 31
0.0
  0
LINE
  5
68
330
1F
100
AcDbEntity
  8
0
100
AcDbLine
 10
-163.2910497507319
 20
-9.072142529930057
 30
0.0
 11
-163.2222436414199
 21
-1.436515617608459
 31
0.0
  0
LINE
  5
69
330
1F
100
AcDbEntity
  8
0
100
AcDbLine
 10
-163.2222436414199
 20
-1.436515617608459
 30
0.0
 11
-161.8360757994836
 21
-1.437363876668983
 31
0.0
  0
LINE
  5
6A
330
1F
100
AcDbEntity
  8
0
100
AcDbLine
 10
-161.8360757994836
 20
-1.437363876668983
 30
0.0
 11
-161.8488967321938
 21
-2.871492758176647
 31
0.0
  0
LINE
  5
6B
330
1F
100
AcDbEntity
  8
0
100
AcDbLine
 10
-161.8488967321938
 20
-2.871492758176647
 30
0.0
 11
-161.2627931125364
 21
-2.170700020580406
 31
0.0
  0
LINE
  5
6C
330
1F
100
AcDbEntity
  8
0
100
AcDbLine
 10
-161.2627931125364
 20
-2.170700020580406
 30
0.0
 11
-160.6171615579892
 21
-1.670138997227027
 31
0.0
  0
LINE
  5
6D
330
1F
100
AcDbEntity
  8
0
100
AcDbLine
 10
-160.6171615579892
 20
-1.670138997227027
 30
0.0
 11
-159.9116054974625
 21
-1.370163133151756
 31
0.0
  0
LINE
  5
6E
330
1F
100
AcDbEntity
  8
0
100
AcDbLine
 10
-159.9116054974625
 20
-1.370163133151756
 30
0.0
 11
-159.1464870989448
 21
-1.270369478633819
 31
0.0
  0
LINE
  5
6F
330
1F
100
AcDbEntity
  8
0
100
AcDbLine
 10
-159.1464870989448
 20
-1.270369478633819
 30
0.0
 11
-158.2559415522821
 21
-1.428414386577739
 31
0.0
  0
LINE
  5
70
330
1F
100
AcDbEntity
  8
0
100
AcDbLine
 10
-158.2559415522821
 20
-1.428414386577739
 30
0.0
 11
-157.5685099621187
 21
-1.90058188918829
 31
0.0
  0
LINE
  5
71
330
1F
100
AcDbEntity
  8
0
100
AcDbLine
 10
-157.5685099621187
 20
-1.90058188918829
 30
0.0
 11
-157.1316342799251
 21
-2.637711373288637
 31
0.0
  0
LINE
  5
72
330
1F
100
AcDbEntity
  8
0
100
AcDbLine
 10
-157.1316342799251
 20
-2.637711373288637
 30
0.0
 11
-156.9922179902214
 21
-3.591420722919534
 31
0.0
  0
LINE
  5
73
330
1F
100
AcDbEntity
  8
0
100
AcDbLine
 10
-156.9922179902214
 20
-3.591420722919534
 30
0.0
 11
-157.0398770543923
 21
-9.075969409235496
 31
0.0
  0
LINE
  5
74
330
1F
100
AcDbEntity
  8
0
100
AcDbLine
 10
-157.0398770543923
 20
-9.075969409235496
 30
0.0
 11
-158.426589875497
 21
-9.07512048330454
 31
0.0
  0
LINE
  5
75
330
1F
100
AcDbEntity
  8
0
100
AcDbLine
 10
-158.426589875497
 20
-9.07512048330454
 30
0.0
 11
-158.382481658512
 21
-4.040519228583218
 31
0.0
  0
LINE
  5
76
330
1F
100
AcDbEntity
  8
0
100
AcDbLine
 10
-158.382481658512
 20
-4.040519228583218
 30
0.0
 11
-158.4386058252733
 21
-3.311969277317099
 31
0.0
  0
LINE
  5
77
330
1F
100
AcDbEntity
  8
0
100
AcDbLine
 10
-158.4386058252733
 20
-3.311969277317099
 30
0.0
 11
-158.6216860080189
 21
-2.827747320251178
 31
0.0
  0
LINE
  5
78
330
1F
100
AcDbEntity
  8
0
100
AcDbLine
 10
-158.6216860080189
 20
-2.827747320251178
 30
0.0
 11
-158.9510560426676
 21
-2.555916863034
 31
0.0
  0
LINE
  5
79
330
1F
100
AcDbEntity
  8
0
100
AcDbLine
 10
-158.9510560426676
 20
-2.555916863034
 30
0.0
 11
-159.4454825333084
 21
-2.464944946498608
 31
0.0
  0
LINE
  5
7A
330
1F
100
AcDbEntity
  8
0
100
AcDbLine
 10
-159.4454825333084
 20
-2.464944946498608
 30
0.0
 11
-160.0739467936592
 21
-2.569060665617739
 31
0.0
  0
LINE
  5
7B
330
1F
100
AcDbEntity
  8
0
100
AcDbLine
 10
-160.0739467936592
 20
-2.569060665617739
 30
0.0
 11
-160.685989536092
 21
-2.880656991527708
 31
0.0
  0
LINE
  5
7C
330
1F
100
AcDbEntity
  8
0
100
AcDbLine
 10
-160.685989536092
 20
-2.880656991527708
 30
0.0
 11
-161.2812586066808
 21
-3.401291017221962
 31
0.0
  0
LINE
  5
7D
330
1F
100
AcDbEntity
  8
0
100
AcDbLine
 10
-161.2812586066808
 20
-3.401291017221962
 30
0.0
 11
-161.8601462288957
 21
-4.129843339026492
 31
0.0
  0
LINE
  5
7E
330
1F
100
AcDbEntity
  8
0
100
AcDbLine
 10
-161.8601462288957
 20
-4.129843339026492
 30
0.0
 11
-161.9043373543906
 21
-9.072991455600631
 31
0.0
  0
LINE
  5
7F
330
1F
100
AcDbEntity
  8
0
100
AcDbLine
 10
-161.9043373543906
 20
-9.072991455600631
 30
0.0
 11
-163.2910497507319
 21
-9.072142529930057
 31
0.0
  0
LINE
  5
80
330
1F
100
AcDbEntity
  8
0
100
AcDbLine
 10
-180.918331556002
 20
-9.061351357903177
 30
0.0
 11
-180.8426033132886
 21
-1.425732919230096
 31
0.0
  0
LINE
  5
81
330
1F
100
AcDbEntity
  8
0
100
AcDbLine
 10
-180.8426033132886
 20
-1.425732919230096
 30
0.0
 11
-179.456437009352
 21
-1.42658117734912
 31
0.0
  0
LINE
  5
82
330
1F
100
AcDbEntity
  8
0
100
AcDbLine
 10
-179.456437009352
 20
-1.42658117734912
 30
0.0
 11
-179.4705580622011
 21
-2.860708467584362
 31
0.0
  0
LINE
  5
83
330
1F
100
AcDbEntity
  8
0
100
AcDbLine
 10
-179.4705580622011
 20
-2.860708467584362
 30
0.0
 11
-178.9207442595081
 21
-2.159893910766981
 31
0.0
  0
LINE
  5
84
330
1F
100
AcDbEntity
  8
0
100
AcDbLine
 10
-178.9207442595081
 20
-2.159893910766981
 30
0.0
 11
-178.3010050314241
 21
-1.659317321041232
 31
0.0
  0
LINE
  5
85
330
1F
100
AcDbEntity
  8
0
100
AcDbLine
 10
-178.3010050314241
 20
-1.659317321041232
 30
0.0
 11
-177.6111380687192
 21
-1.359332023385414
 31
0.0
  0
LINE
  5
86
330
1F
100
AcDbEntity
  8
0
100
AcDbLine
 10
-177.6111380687192
 20
-1.359332023385414
 30
0.0
 11
-176.8511215309758
 21
-1.259535302706595
 31
0.0
  0
LINE
  5
87
330
1F
100
AcDbEntity
  8
0
100
AcDbLine
 10
-176.8511215309758
 20
-1.259535302706595
 30
0.0
 11
-176.1461297545742
 21
-1.360228525356981
 31
0.0
  0
LINE
  5
88
330
1F
100
AcDbEntity
  8
0
100
AcDbLine
 10
-176.1461297545742
 20
-1.360228525356981
 30
0.0
 11
-175.565370311673
 21
-1.660991400159874
 31
0.0
  0
LINE
  5
89
330
1F
100
AcDbEntity
  8
0
100
AcDbLine
 10
-175.565370311673
 20
-1.660991400159874
 30
0.0
 11
-175.108834731776
 21
-2.162226679310087
 31
0.0
  0
LINE
  5
8A
330
1F
100
AcDbEntity
  8
0
100
AcDbLine
 10
-175.108834731776
 20
-2.162226679310087
 30
0.0
 11
-174.7765148095294
 21
-2.863581177798157
 31
0.0
  0
LINE
  5
8B
330
1F
100
AcDbEntity
  8
0
100
AcDbLine
 10
-174.7765148095294
 20
-2.863581177798157
 30
0.0
 11
-174.2401105841937
 21
-2.159684883223794
 31
0.0
  0
LINE
  5
8C
330
1F
100
AcDbEntity
  8
0
100
AcDbLine
 10
-174.2401105841937
 20
-2.159684883223794
 30
0.0
 11
-173.6320086072455
 21
-1.656796305077251
 31
0.0
  0
LINE
  5
8D
330
1F
100
AcDbEntity
  8
0
100
AcDbLine
 10
-173.6320086072455
 20
-1.656796305077251
 30
0.0
 11
-172.9518182724087
 21
-1.355652767893114
 31
0.0
  0
LINE
  5
8E
330
1F
100
AcDbEntity
  8
0
100
AcDbLine
 10
-172.9518182724087
 20
-1.355652767893114
 30
0.0
 11
-172.1997067820769
 21
-1.255467119645413
 31
0.0
  0
LINE
  5
8F
330
1F
100
AcDbEntity
  8
0
100
AcDbLine
 10
-172.1997067820769
 20
-1.255467119645413
 30
0.0
 11
-171.3020657020964
 21
-1.404296623573382
 31
0.0
  0
LINE
  5
90
330
1F
100
AcDbEntity
  8
0
100
AcDbLine
 10
-171.3020657020964
 20
-1.404296623573382
 30
0.0
 11
-170.6360533792045
 21
-1.850326707574791
 31
0.0
  0
LINE
  5
91
330
1F
100
AcDbEntity
  8
0
100
AcDbLine
 10
-170.6360533792045
 20
-1.850326707574791
 30
0.0
 11
-170.2257955581373
 21
-2.563232121222621
 31
0.0
  0
LINE
  5
92
330
1F
100
AcDbEntity
  8
0
100
AcDbLine
 10
-170.2257955581373
 20
-2.563232121222621
 30
0.0
 11
-170.0956411449674
 21
-3.513086567639058
 31
0.0
  0
LINE
  5
93
330
1F
100
AcDbEntity
  8
0
100
AcDbLine
 10
-170.0956411449674
 20
-3.513086567639058
 30
0.0
 11
-170.147655879848
 21
-9.067945012861484
 31
0.0
  0
LINE
  5
94
330
1F
100
AcDbEntity
  8
0
100
AcDbLine
 10
-170.147655879848
 20
-9.067945012861484
 30
0.0
 11
-171.5414858041343
 21
-9.067091729940406
 31
0.0
  0
LINE
  5
95
330
1F
100
AcDbEntity
  8
0
100
AcDbLine
 10
-171.5414858041343
 20
-9.067091729940406
 30
0.0
 11
-171.4911285035999
 21
-3.730094421236478
 31
0.0
  0
LINE
  5
96
330
1F
100
AcDbEntity
  8
0
100
AcDbLine
 10
-171.4911285035999
 20
-3.730094421236478
 30
0.0
 11
-171.5505443828256
 21
-3.157940831628935
 31
0.0
  0
LINE
  5
97
330
1F
100
AcDbEntity
  8
0
100
AcDbLine
 10
-171.5505443828256
 20
-3.157940831628935
 30
0.0
 11
-171.7405505846446
 21
-2.749409550767801
 31
0.0
  0
LINE
  5
98
330
1F
100
AcDbEntity
  8
0
100
AcDbLine
 10
-171.7405505846446
 20
-2.749409550767801
 30
0.0
 11
-172.0615246763422
 21
-2.504095522480063
 31
0.0
  0
LINE
  5
99
330
1F
100
AcDbEntity
  8
0
100
AcDbLine
 10
-172.0615246763422
 20
-2.504095522480063
 30
0.0
 11
-172.5132774648453
 21
-2.421986505741832
 31
0.0
  0
LINE
  5
9A
330
1F
100
AcDbEntity
  8
0
100
AcDbLine
 10
-172.5132774648453
 20
-2.421986505741832
 30
0.0
 11
-173.0592171541323
 21
-2.516931684824973
 31
0.0
  0
LINE
  5
9B
330
1F
100
AcDbEntity
  8
0
100
AcDbLine
 10
-173.0592171541323
 20
-2.516931684824973
 30
0.0
 11
-173.6200626935994
 21
-2.802816106419011
 31
0.0
  0
LINE
  5
9C
330
1F
100
AcDbEntity
  8
0
100
AcDbLine
 10
-173.6200626935994
 20
-2.802816106419011
 30
0.0
 11
-174.1960162392114
 21
-3.278888062128587
 31
0.0
  0
LINE
  5
9D
330
1F
100
AcDbEntity
  8
0
100
AcDbLine
 10
-174.1960162392114
 20
-3.278888062128587
 30
0.0
 11
-174.7869108537308
 21
-3.945944111848179
 31
0.0
  0
LINE
  5
9E
330
1F
100
AcDbEntity
  8
0
100
AcDbLine
 10
-174.7869108537308
 20
-3.945944111848179
 30
0.0
 11
-174.8360798593436
 21
-9.06507482616668
 31
0.0
  0
LINE
  5
9F
330
1F
100
AcDbEntity
  8
0
100
AcDbLine
 10
-174.8360798593436
 20
-9.06507482616668
 30
0.0
 11
-176.2299093721376
 21
-9.064221543498848
 31
0.0
  0
LINE
  5
A0
330
1F
100
AcDbEntity
  8
0
100
AcDbLine
 10
-176.2299093721376
 20
-9.064221543498848
 30
0.0
 11
-176.1782652038514
 21
-3.727225810191152
 31
0.0
  0
LINE
  5
A1
330
1F
100
AcDbEntity
  8
0
100
AcDbLine
 10
-176.1782652038514
 20
-3.727225810191152
 30
0.0
 11
-176.2386673202286
 21
-3.151997959527716
 31
0.0
  0
LINE
  5
A2
330
1F
100
AcDbEntity
  8
0
100
AcDbLine
 10
-176.2386673202286
 20
-3.151997959527716
 30
0.0
 11
-176.4325913680619
 21
-2.741159261554622
 31
0.0
  0
LINE
  5
A3
330
1F
100
AcDbEntity
  8
0
100
AcDbLine
 10
-176.4325913680619
 20
-2.741159261554622
 30
0.0
 11
-176.7600300709647
 21
-2.494304682121696
 31
0.0
  0
LINE
  5
A4
330
1F
100
AcDbEntity
  8
0
100
AcDbLine
 10
-176.7600300709647
 20
-2.494304682121696
 30
0.0
 11
-177.2211864247729
 21
-2.412189981056268
 31
0.0
  0
LINE
  5
A5
330
1F
100
AcDbEntity
  8
0
100
AcDbLine
 10
-177.2211864247729
 20
-2.412189981056268
 30
0.0
 11
-177.7556133766491
 21
-2.507526316108212
 31
0.0
  0
LINE
  5
A6
330
1F
100
AcDbEntity
  8
0
100
AcDbLine
 10
-177.7556133766491
 20
-2.507526316108212
 30
0.0
 11
-178.3103846642157
 21
-2.794566831162613
 31
0.0
  0
LINE
  5
A7
330
1F
100
AcDbEntity
  8
0
100
AcDbLine
 10
-178.3103846642157
 20
-2.794566831162613
 30
0.0
 11
-178.8855138319133
 21
-3.27294429213421
 31
0.0
  0
LINE
  5
A8
330
1F
100
AcDbEntity
  8
0
100
AcDbLine
 10
-178.8855138319133
 20
-3.27294429213421
 30
0.0
 11
-179.4812154841604
 21
-3.943071081702351
 31
0.0
  0
LINE
  5
A9
330
1F
100
AcDbEntity
  8
0
100
AcDbLine
 10
-179.4812154841604
 20
-3.943071081702351
 30
0.0
 11
-179.5316206988699
 21
-9.062200282631364
 31
0.0
  0
LINE
  5
AA
330
1F
100
AcDbEntity
  8
0
100
AcDbLine
 10
-179.5316206988699
 20
-9.062200282631364
 30
0.0
 11
-180.918331556002
 21
-9.061351357903177
 31
0.0
  0
LINE
  5
AB
330
1F
100
AcDbEntity
  8
0
100
AcDbLine
 10
-167.4584968479331
 20
-9.069591277897706
 30
0.0
 11
-167.3880542051338
 21
-1.433966368918177
 31
0.0
  0
LINE
  5
AC
330
1F
100
AcDbEntity
  8
0
100
AcDbLine
 10
-167.3880542051338
 20
-1.433966368918177
 30
0.0
 11
-166.001886726812
 21
-1.434814627756717
 31
0.0
  0
LINE
  5
AD
330
1F
100
AcDbEntity
  8
0
100
AcDbLine
 10
-166.001886726812
 20
-1.434814627756717
 30
0.0
 11
-166.0717848154929
 21
-9.070440203345305
 31
0.0
  0
LINE
  5
AE
330
1F
100
AcDbEntity
  8
0
100
AcDbLine
 10
-166.0717848154929
 20
-9.070440203345305
 30
0.0
 11
-167.4584968479331
 21
-9.069591277897706
 31
0.0
  0
LINE
  5
AF
330
1F
100
AcDbEntity
  8
0
100
AcDbLine
 10
-154.2664672680551
 20
-0.0576187422357292
 30
0.0
 11
-154.254631167589
 21
1.326554144657139
 31
0.0
  0
LINE
  5
B0
330
1F
100
AcDbEntity
  8
0
100
AcDbLine
 10
-154.254631167589
 20
1.326554144657139
 30
0.0
 11
-152.8686599908638
 21
1.325706126754589
 31
0.0
  0
LINE
  5
B1
330
1F
100
AcDbEntity
  8
0
100
AcDbLine
 10
-152.8686599908638
 20
1.325706126754589
 30
0.0
 11
-152.8803973754179
 21
-0.0584668809428452
 31
0.0
  0
LINE
  5
B2
330
1F
100
AcDbEntity
  8
0
100
AcDbLine
 10
-152.8803973754179
 20
-0.0584668809428452
 30
0.0
 11
-154.2664672680551
 21
-0.0576187422357292
 31
0.0
  0
LINE
  5
B3
330
1F
100
AcDbEntity
  8
0
100
AcDbLine
 10
-149.5610277087358
 20
-1.871291248502314
 30
0.0
 11
-149.5344835513567
 21
1.323666083386288
 31
0.0
  0
LINE
  5
B4
330
1F
100
AcDbEntity
  8
0
100
AcDbLine
 10
-149.5344835513567
 20
1.323666083386288
 30
0.0
 11
-146.3356732482096
 21
1.321708864903816
 31
0.0
  0
LINE
  5
B5
330
1F
100
AcDbEntity
  8
0
100
AcDbLine
 10
-146.3356732482096
 20
1.321708864903816
 30
0.0
 11
-146.3616915140358
 21
-1.873249110582067
 31
0.0
  0
LINE
  5
B6
330
1F
100
AcDbEntity
  8
0
100
AcDbLine
 10
-146.3616915140358
 20
-1.873249110582067
 30
0.0
 11
-149.5610277087358
 21
-1.871291248502314
 31
0.0
  0
LINE
  5
B7
330
1F
100
AcDbEntity
  8
0
100
AcDbLine
 10
-149.7341263416492
 20
-22.70611144866036
 30
0.0
 11
-149.5875837881766
 21
-5.067683565724332
 31
0.0
  0
LINE
  5
B8
330
1F
100
AcDbEntity
  8
0
100
AcDbLine
 10
-149.5875837881766
 20
-5.067683565724332
 30
0.0
 11
-146.387721465724
 21
-5.069642071798397
 31
0.0
  0
LINE
  5
B9
330
1F
100
AcDbEntity
  8
0
100
AcDbLine
 10
-146.387721465724
 20
-5.069642071798397
 30
0.0
 11
-146.5313607252818
 21
-22.70807351034176
 31
0.0
  0
LINE
  5
BA
330
1F
100
AcDbEntity
  8
0
100
AcDbLine
 10
-146.5313607252818
 20
-22.70807351034176
 30
0.0
 11
-149.7341263416492
 21
-22.70611144866036
 31
0.0
  0
LINE
  5
BB
330
1F
100
AcDbEntity
  8
0
100
AcDbLine
 10
-143.5662770912297
 20
-22.53125585508201
 30
0.0
 11
-143.5423765375413
 21
-19.5404064019724
 31
0.0
  0
LINE
  5
BC
330
1F
100
AcDbEntity
  8
0
100
AcDbLine
 10
-143.5423765375413
 20
-19.5404064019724
 30
0.0
 11
-140.4698066106157
 21
-20.56646931056139
 31
0.0
  0
LINE
  5
BD
330
1F
100
AcDbEntity
  8
0
100
AcDbLine
 10
-140.4698066106157
 20
-20.56646931056139
 30
0.0
 11
-138.1233707226414
 21
-20.90893932083811
 31
0.0
  0
LINE
  5
BE
330
1F
100
AcDbEntity
  8
0
100
AcDbLine
 10
-138.1233707226414
 20
-20.90893932083811
 30
0.0
 11
-136.0419869707962
 21
-20.57495515173993
 31
0.0
  0
LINE
  5
BF
330
1F
100
AcDbEntity
  8
0
100
AcDbLine
 10
-136.0419869707962
 20
-20.57495515173993
 30
0.0
 11
-134.3822063056662
 21
-19.57064856948699
 31
0.0
  0
LINE
  5
C0
330
1F
100
AcDbEntity
  8
0
100
AcDbLine
 10
-134.3822063056662
 20
-19.57064856948699
 30
0.0
 11
-133.2918246463739
 21
-18.03351137825699
 31
0.0
  0
LINE
  5
C1
330
1F
100
AcDbEntity
  8
0
100
AcDbLine
 10
-133.2918246463739
 20
-18.03351137825699
 30
0.0
 11
-132.9177077672741
 21
-16.10220776518009
 31
0.0
  0
LINE
  5
C2
330
1F
100
AcDbEntity
  8
0
100
AcDbLine
 10
-132.9177077672741
 20
-16.10220776518009
 30
0.0
 11
-133.0199042507344
 21
-14.91455842308111
 31
0.0
  0
LINE
  5
C3
330
1F
100
AcDbEntity
  8
0
100
AcDbLine
 10
-133.0199042507344
 20
-14.91455842308111
 30
0.0
 11
-133.3451424538397
 21
-13.88500392307104
 31
0.0
  0
LINE
  5
C4
330
1F
100
AcDbEntity
  8
0
100
AcDbLine
 10
-133.3451424538397
 20
-13.88500392307104
 30
0.0
 11
-133.8933948827323
 21
-13.01349407772249
 31
0.0
  0
LINE
  5
C5
330
1F
100
AcDbEntity
  8
0
100
AcDbLine
 10
-133.8933948827323
 20
-13.01349407772249
 30
0.0
 11
-134.6646478139132
 21
-12.3003709871322
 31
0.0
  0
LINE
  5
C6
330
1F
100
AcDbEntity
  8
0
100
AcDbLine
 10
-134.6646478139132
 20
-12.3003709871322
 30
0.0
 11
-136.8765281073993
 21
-11.34915322235075
 31
0.0
  0
LINE
  5
C7
330
1F
100
AcDbEntity
  8
0
100
AcDbLine
 10
-136.8765281073993
 20
-11.34915322235075
 30
0.0
 11
-139.9808654419892
 21
-11.03078024339806
 31
0.0
  0
LINE
  5
C8
330
1F
100
AcDbEntity
  8
0
100
AcDbLine
 10
-139.9808654419892
 20
-11.03078024339806
 30
0.0
 11
-141.2482351156568
 21
-11.03000430006565
 31
0.0
  0
LINE
  5
C9
330
1F
100
AcDbEntity
  8
0
100
AcDbLine
 10
-141.2482351156568
 20
-11.03000430006565
 30
0.0
 11
-141.2312271419307
 21
-8.870741025761545
 31
0.0
  0
LINE
  5
CA
330
1F
100
AcDbEntity
  8
0
100
AcDbLine
 10
-141.2312271419307
 20
-8.870741025761545
 30
0.0
 11
-140.1100802679452
 21
-8.854896317285233
 31
0.0
  0
LINE
  5
CB
330
1F
100
AcDbEntity
  8
0
100
AcDbLine
 10
-140.1100802679452
 20
-8.854896317285233
 30
0.0
 11
-137.1934208180958
 21
-8.563740865838218
 31
0.0
  0
LINE
  5
CC
330
1F
100
AcDbEntity
  8
0
100
AcDbLine
 10
-137.1934208180958
 20
-8.563740865838218
 30
0.0
 11
-135.1052146417681
 21
-7.685480406578032
 31
0.0
  0
LINE
  5
CD
330
1F
100
AcDbEntity
  8
0
100
AcDbLine
 10
-135.1052146417681
 20
-7.685480406578032
 30
0.0
 11
-134.3715476471323
 21
-7.026327620983162
 31
0.0
  0
LINE
  5
CE
330
1F
100
AcDbEntity
  8
0
100
AcDbLine
 10
-134.3715476471323
 20
-7.026327620983162
 30
0.0
 11
-133.8451539237562
 21
-6.2202742815275
 31
0.0
  0
LINE
  5
CF
330
1F
100
AcDbEntity
  8
0
100
AcDbLine
 10
-133.8451539237562
 20
-6.2202742815275
 30
0.0
 11
-133.413553129201
 21
-4.168771900942176
 31
0.0
  0
LINE
  5
D0
330
1F
100
AcDbEntity
  8
0
100
AcDbLine
 10
-133.413553129201
 20
-4.168771900942176
 30
0.0
 11
-133.6755654034228
 21
-2.557553990730352
 31
0.0
  0
LINE
  5
D1
330
1F
100
AcDbEntity
  8
0
100
AcDbLine
 10
-133.6755654034228
 20
-2.557553990730352
 30
0.0
 11
-134.4892593870461
 21
-1.406079997586991
 31
0.0
  0
LINE
  5
D2
330
1F
100
AcDbEntity
  8
0
100
AcDbLine
 10
-134.4892593870461
 20
-1.406079997586991
 30
0.0
 11
-135.8544082843945
 21
-0.7149549134870308
 31
0.0
  0
LINE
  5
D3
330
1F
100
AcDbEntity
  8
0
100
AcDbLine
 10
-135.8544082843945
 20
-0.7149549134870308
 30
0.0
 11
-137.7708549869832
 21
-0.4836965437501448
 31
0.0
  0
LINE
  5
D4
330
1F
100
AcDbEntity
  8
0
100
AcDbLine
 10
-137.7708549869832
 20
-0.4836965437501448
 30
0.0
 11
-140.2989706866209
 21
-0.8186372312308493
 31
0.0
  0
LINE
  5
D5
330
1F
100
AcDbEntity
  8
0
100
AcDbLine
 10
-140.2989706866209
 20
-0.8186372312308493
 30
0.0
 11
-143.076004273743
 21
-1.826854918947581
 31
0.0
  0
LINE
  5
D6
330
1F
100
AcDbEntity
  8
0
100
AcDbLine
 10
-143.076004273743
 20
-1.826854918947581
 30
0.0
 11
-143.0537571686724
 21
0.9629206041513663
 31
0.0
  0
LINE
  5
D7
330
1F
100
AcDbEntity
  8
0
100
AcDbLine
 10
-143.0537571686724
 20
0.9629206041513663
 30
0.0
 11
-140.2469139780061
 21
1.678974822548552
 31
0.0
  0
LINE
  5
D8
330
1F
100
AcDbEntity
  8
0
100
AcDbLine
 10
-140.2469139780061
 20
1.678974822548552
 30
0.0
 11
-137.5250959849502
 21
1.916554938486056
 31
0.0
  0
LINE
  5
D9
330
1F
100
AcDbEntity
  8
0
100
AcDbLine
 10
-137.5250959849502
 20
1.916554938486056
 30
0.0
 11
-134.3024658189388
 21
1.566657663145626
 31
0.0
  0
LINE
  5
DA
330
1F
100
AcDbEntity
  8
0
100
AcDbLine
 10
-134.3024658189388
 20
1.566657663145626
 30
0.0
 11
-133.0385798915936
 21
1.131535959439624
 31
0.0
  0
LINE
  5
DB
330
1F
100
AcDbEntity
  8
0
100
AcDbLine
 10
-133.0385798915936
 20
1.131535959439624
 30
0.0
 11
-132.0062877337258
 21
0.5225535018854596
 31
0.0
  0
LINE
  5
DC
330
1F
100
AcDbEntity
  8
0
100
AcDbLine
 10
-132.0062877337258
 20
0.5225535018854596
 30
0.0
 11
-131.2057757132623
 21
-0.2603222797025914
 31
0.0
  0
LINE
  5
DD
330
1F
100
AcDbEntity
  8
0
100
AcDbLine
 10
-131.2057757132623
 20
-0.2603222797025914
 30
0.0
 11
-130.6366629251646
 21
-1.216749508042489
 31
0.0
  0
LINE
  5
DE
330
1F
100
AcDbEntity
  8
0
100
AcDbLine
 10
-130.6366629251646
 20
-1.216749508042489
 30
0.0
 11
-130.2993557414614
 21
-2.347163367703601
 31
0.0
  0
LINE
  5
DF
330
1F
100
AcDbEntity
  8
0
100
AcDbLine
 10
-130.2993557414614
 20
-2.347163367703601
 30
0.0
 11
-130.1936932250255
 21
-3.651624677082572
 31
0.0
  0
LINE
  5
E0
330
1F
100
AcDbEntity
  8
0
100
AcDbLine
 10
-130.1936932250255
 20
-3.651624677082572
 30
0.0
 11
-130.5217883316625
 21
-5.616994191729526
 31
0.0
  0
LINE
  5
E1
330
1F
100
AcDbEntity
  8
0
100
AcDbLine
 10
-130.5217883316625
 20
-5.616994191729526
 30
0.0
 11
-131.4752174138438
 21
-7.277944484451552
 31
0.0
  0
LINE
  5
E2
330
1F
100
AcDbEntity
  8
0
100
AcDbLine
 10
-131.4752174138438
 20
-7.277944484451552
 30
0.0
 11
-133.0540959167881
 21
-8.634319398251877
 31
0.0
  0
LINE
  5
E3
330
1F
100
AcDbEntity
  8
0
100
AcDbLine
 10
-133.0540959167881
 20
-8.634319398251877
 30
0.0
 11
-135.2584804803107
 21
-9.685991381606282
 31
0.0
  0
LINE
  5
E4
330
1F
100
AcDbEntity
  8
0
100
AcDbLine
 10
-135.2584804803107
 20
-9.685991381606282
 30
0.0
 11
-132.7202447238029
 21
-10.59072034000172
 31
0.0
  0
LINE
  5
E5
330
1F
100
AcDbEntity
  8
0
100
AcDbLine
 10
-132.7202447238029
 20
-10.59072034000172
 30
0.0
 11
-130.9124469069976
 21
-11.95347698397243
 31
0.0
  0
LINE
  5
E6
330
1F
100
AcDbEntity
  8
0
100
AcDbLine
 10
-130.9124469069976
 20
-11.95347698397243
 30
0.0
 11
-129.8349260608941
 21
-13.77522329086308
 31
0.0
  0
LINE
  5
E7
330
1F
100
AcDbEntity
  8
0
100
AcDbLine
 10
-129.8349260608941
 20
-13.77522329086308
 30
0.0
 11
-129.4880008317989
 21
-16.0558323671583
 31
0.0
  0
LINE
  5
E8
330
1F
100
AcDbEntity
  8
0
100
AcDbLine
 10
-129.4880008317989
 20
-16.0558323671583
 30
0.0
 11
-129.6397976881573
 21
-17.6621089410433
 31
0.0
  0
LINE
  5
E9
330
1F
100
AcDbEntity
  8
0
100
AcDbLine
 10
-129.6397976881573
 20
-17.6621089410433
 30
0.0
 11
-130.0707378333791
 21
-19.08567569735643
 31
0.0
  0
LINE
  5
EA
330
1F
100
AcDbEntity
  8
0
100
AcDbLine
 10
-130.0707378333791
 20
-19.08567569735643
 30
0.0
 11
-130.7808703950982
 21
-20.32645235068325
 31
0.0
  0
LINE
  5
EB
330
1F
100
AcDbEntity
  8
0
100
AcDbLine
 10
-130.7808703950982
 20
-20.32645235068325
 30
0.0
 11
-131.7702287570633
 21
-21.38436891010596
 31
0.0
  0
LINE
  5
EC
330
1F
100
AcDbEntity
  8
0
100
AcDbLine
 10
-131.7702287570633
 20
-21.38436891010596
 30
0.0
 11
-133.0029943288571
 21
-22.22974477544397
 31
0.0
  0
LINE
  5
ED
330
1F
100
AcDbEntity
  8
0
100
AcDbLine
 10
-133.0029943288571
 20
-22.22974477544397
 30
0.0
 11
-134.4433246847444
 21
-22.83367175990697
 31
0.0
  0
LINE
  5
EE
330
1F
100
AcDbEntity
  8
0
100
AcDbLine
 10
-134.4433246847444
 20
-22.83367175990697
 30
0.0
 11
-136.0913721853703
 21
-23.19533475696279
 31
0.0
  0
LINE
  5
EF
330
1F
100
AcDbEntity
  8
0
100
AcDbLine
 10
-136.0913721853703
 20
-23.19533475696279
 30
0.0
 11
-137.9467047601533
 21
-23.31509199579893
 31
0.0
  0
LINE
  5
F0
330
1F
100
AcDbEntity
  8
0
100
AcDbLine
 10
-137.9467047601533
 20
-23.31509199579893
 30
0.0
 11
-140.4655369886621
 21
-23.11834838447548
 31
0.0
  0
LINE
  5
F1
330
1F
100
AcDbEntity
  8
0
100
AcDbLine
 10
-140.4655369886621
 20
-23.11834838447548
 30
0.0
 11
-143.5662770912297
 21
-22.53125585508201
 31
0.0
  0
LINE
  5
F2
330
1F
100
AcDbEntity
  8
0
100
AcDbLine
 10
-233.1562089235806
 20
-287.729611536447
 30
0.0
 11
-236.700765268102
 21
-287.7274105067518
 31
0.0
  0
LINE
  5
F3
330
1F
100
AcDbEntity
  8
0
100
AcDbLine
 10
-236.700765268102
 20
-287.7274105067518
 30
0.0
 11
-236.6573525112011
 21
-284.2835833903583
 31
0.0
  0
LINE
  5
F4
330
1F
100
AcDbEntity
  8
0
100
AcDbLine
 10
-236.6573525112011
 20
-284.2835833903583
 30
0.0
 11
-233.1134150840647
 21
-284.2857836514677
 31
0.0
  0
LINE
  5
F5
330
1F
100
AcDbEntity
  8
0
100
AcDbLine
 10
-224.7969435337189
 20
-284.2909469505657
 30
0.0
 11
-221.2530034598347
 21
-284.2931472133185
 31
0.0
  0
LINE
  5
F6
330
1F
100
AcDbEntity
  8
0
100
AcDbLine
 10
-221.2530034598347
 20
-284.2931472133185
 30
0.0
 11
-221.2937259821592
 21
-287.7369776705049
 31
0.0
  0
LINE
  5
F7
330
1F
100
AcDbEntity
  8
0
100
AcDbLine
 10
-221.2937259821592
 20
-287.7369776705049
 30
0.0
 11
-224.8382849743534
 21
-287.7347766391659
 31
0.0
  0
LINE
  5
F8
330
1F
100
AcDbEntity
  8
0
100
AcDbLine
 10
20.5405492100775
 20
-230.3733096130757
 30
0.0
 11
20.51546297675912
 21
-173.1239300109467
 31
0.0
  0
LINE
  5
F9
330
1F
100
AcDbEntity
  8
0
100
AcDbLine
 10
24.5702614407739
 20
-173.1264332299426
 30
0.0
 11
24.60718637276665
 21
-230.3758274705833
 31
0.0
  0
LINE
  5
FA
330
1F
100
AcDbEntity
  8
0
100
AcDbLine
 10
-109.2592432655791
 20
-61.70100210956777
 30
0.0
 11
-62.46089570226144
 21
-61.72972889001286
 31
0.0
  0
LINE
  5
FB
330
1F
100
AcDbEntity
  8
0
100
AcDbLine
 10
-62.46089570226144
 20
-61.72972889001286
 30
0.0
 11
-107.333816234465
 21
-106.4882668789282
 31
0.0
  0
LINE
  5
FC
330
1F
100
AcDbEntity
  8
0
100
AcDbLine
 10
-107.333816234465
 20
-106.4882668789282
 30
0.0
 11
-109.5376118442611
 21
-106.4869109896455
 31
0.0
  0
LINE
  5
FD
330
1F
100
AcDbEntity
  8
0
100
AcDbLine
 10
-109.5376118442611
 20
-106.4869109896455
 30
0.0
 11
-117.2317788322065
 21
-98.70736841019722
 31
0.0
  0
LINE
  5
FE
330
1F
100
AcDbEntity
  8
0
100
AcDbLine
 10
-117.2317788322065
 20
-98.70736841019722
 30
0.0
 11
-117.038278839764
 21
-69.44198226358243
 31
0.0
  0
LINE
  5
FF
330
1F
100
AcDbEntity
  8
0
100
AcDbLine
 10
-117.038278839764
 20
-69.44198226358243
 30
0.0
 11
-109.2592432655791
 21
-61.70100210956777
 31
0.0
  0
LINE
  5
100
330
1F
100
AcDbEntity
  8
0
100
AcDbLine
 10
-152.8127058262118
 20
-100.7843205830446
 30
0.0
 11
-149.6241414136405
 21
-97.60681646393364
 31
0.0
  0
LINE
  5
101
330
1F
100
AcDbEntity
  8
0
100
AcDbLine
 10
-149.6241414136405
 20
-97.60681646393364
 30
0.0
 11
-135.2848345995892
 21
-112.128766108516
 31
0.0
  0
LINE
  5
102
330
1F
100
AcDbEntity
  8
0
100
AcDbLine
 10
-135.2848345995892
 20
-112.128766108516
 30
0.0
 11
-135.3204836928133
 21
-116.862455772501
 31
0.0
  0
LINE
  5
103
330
1F
100
AcDbEntity
  8
0
100
AcDbLine
 10
-135.3204836928133
 20
-116.862455772501
 30
0.0
 11
-149.9008607385583
 21
-131.3925062546629
 31
0.0
  0
LINE
  5
104
330
1F
100
AcDbEntity
  8
0
100
AcDbLine
 10
-149.9008607385583
 20
-131.3925062546629
 30
0.0
 11
-153.0439217245058
 21
-128.2038598577573
 31
0.0
  0
LINE
  5
105
330
1F
100
AcDbEntity
  8
0
100
AcDbLine
 10
-153.0439217245058
 20
-128.2038598577573
 30
0.0
 11
-152.8127058262118
 21
-100.7843205830446
 31
0.0
  0
LINE
  5
106
330
1F
100
AcDbEntity
  8
0
100
AcDbLine
 10
-74.75015862857587
 20
-106.5083140339171
 30
0.0
 11
-89.53694255316549
 21
-106.4992164380393
 31
0.0
  0
LINE
  5
107
330
1F
100
AcDbEntity
  8
0
100
AcDbLine
 10
-66.87031152418227
 20
-98.63513244734565
 30
0.0
 11
-74.75015862857587
 21
-106.5083140339171
 31
0.0
  0
LINE
  5
108
330
1F
100
AcDbEntity
  8
0
100
AcDbLine
 10
-67.05773264558992
 20
-145.0984962008231
 30
0.0
 11
-89.61894782518834
 21
-122.2917952783562
 31
0.0
  0
LINE
  5
109
330
1F
100
AcDbEntity
  8
0
100
AcDbLine
 10
-89.61894782518834
 20
-122.2917952783562
 30
0.0
 11
-74.82020432167249
 21
-122.3009075906295
 31
0.0
  0
LINE
  5
10A
330
1F
100
AcDbEntity
  8
0
100
AcDbLine
 10
-74.82020432167249
 20
-122.3009075906295
 30
0.0
 11
-66.99764753421327
 21
-130.2028624263734
 31
0.0
  0
LINE
  5
10B
330
1F
100
AcDbEntity
  8
0
100
AcDbLine
 10
-66.99764753421327
 20
-130.2028624263734
 30
0.0
 11
-67.05773264558992
 21
-145.0984962008231
 31
0.0
  0
LINE
  5
10C
330
1F
100
AcDbEntity
  8
0
100
AcDbLine
 10
-109.9158742258202
 20
-167.3444425167675
 30
0.0
 11
-117.6338397337313
 21
-159.5159885503925
 31
0.0
  0
LINE
  5
10D
330
1F
100
AcDbEntity
  8
0
100
AcDbLine
 10
-117.6338397337313
 20
-159.5159885503925
 30
0.0
 11
-117.4391340401213
 21
-130.068249372146
 31
0.0
  0
LINE
  5
10E
330
1F
100
AcDbEntity
  8
0
100
AcDbLine
 10
-117.4391340401213
 20
-130.068249372146
 30
0.0
 11
-109.6357711157423
 21
-122.2794699384048
 31
0.0
  0
LINE
  5
10F
330
1F
100
AcDbEntity
  8
0
100
AcDbLine
 10
-109.6357711157423
 20
-122.2794699384048
 30
0.0
 11
-107.4302658133088
 21
-122.2808279762021
 31
0.0
  0
LINE
  5
110
330
1F
100
AcDbEntity
  8
0
100
AcDbLine
 10
-107.4302658133088
 20
-122.2808279762021
 30
0.0
 11
-62.86402065842077
 21
-167.373481410392
 31
0.0
  0
LINE
  5
111
330
1F
100
AcDbEntity
  8
0
100
AcDbLine
 10
-62.86402065842077
 20
-167.373481410392
 30
0.0
 11
-109.9158742258202
 21
-167.3444425167675
 31
0.0
  0
LINE
  5
112
330
1F
100
AcDbEntity
  8
0
100
AcDbLine
 10
11.2526551607771
 20
-287.8813798017173
 30
0.0
 11
7.708044264684935
 21
-287.8791787381481
 31
0.0
  0
LINE
  5
113
330
1F
100
AcDbEntity
  8
0
100
AcDbLine
 10
7.708044264684935
 20
-287.8791787381481
 30
0.0
 11
7.708780310107933
 21
-284.4352986250618
 31
0.0
  0
LINE
  5
114
330
1F
100
AcDbEntity
  8
0
100
AcDbLine
 10
7.708780310107933
 20
-284.4352986250618
 30
0.0
 11
11.25277226976488
 21
-284.4374989200278
 31
0.0
  0
LINE
  5
115
330
1F
100
AcDbEntity
  8
0
100
AcDbLine
 10
19.56937179027189
 20
-284.4426622985762
 30
0.0
 11
23.11336639673843
 21
-284.4448625951857
 31
0.0
  0
LINE
  5
116
330
1F
100
AcDbEntity
  8
0
100
AcDbLine
 10
23.11336639673843
 20
-284.4448625951857
 30
0.0
 11
23.11532066869332
 21
-287.8887460491421
 31
0.0
  0
LINE
  5
117
330
1F
100
AcDbEntity
  8
0
100
AcDbLine
 10
23.11532066869332
 20
-287.8887460491421
 30
0.0
 11
19.57070712486733
 21
-287.8865449839286
 31
0.0
  0
LINE
  5
118
330
1F
100
AcDbEntity
  8
0
100
AcDbLine
 10
-228.7171185776881
 20
-272.4119378603763
 30
0.0
 11
-229.2453499021146
 21
-272.481922360333
 31
0.0
  0
LINE
  5
119
330
1F
100
AcDbEntity
  8
0
100
AcDbLine
 10
-229.2453499021146
 20
-272.481922360333
 30
0.0
 11
-229.7393109150591
 21
-272.6877638597358
 31
0.0
  0
LINE
  5
11A
330
1F
100
AcDbEntity
  8
0
100
AcDbLine
 10
-229.7393109150591
 20
-272.6877638597358
 30
0.0
 11
-230.1653468931252
 21
-273.0154424917203
 31
0.0
  0
LINE
  5
11B
330
1F
100
AcDbEntity
  8
0
100
AcDbLine
 10
-230.1653468931252
 20
-273.0154424917203
 30
0.0
 11
-230.4944271837031
 21
-273.4426382889828
 31
0.0
  0
LINE
  5
11C
330
1F
100
AcDbEntity
  8
0
100
AcDbLine
 10
-230.4944271837031
 20
-273.4426382889828
 30
0.0
 11
-230.7041227931387
 21
-273.9402493621658
 31
0.0
  0
LINE
  5
11D
330
1F
100
AcDbEntity
  8
0
100
AcDbLine
 10
-230.7041227931387
 20
-273.9402493621658
 30
0.0
 11
-230.7801356126026
 21
-274.4743722524158
 31
0.0
  0
LINE
  5
11E
330
1F
100
AcDbEntity
  8
0
100
AcDbLine
 10
-230.7801356126026
 20
-274.4743722524158
 30
0.0
 11
-230.7172748730247
 21
-275.0086102754029
 31
0.0
  0
LINE
  5
11F
330
1F
100
AcDbEntity
  8
0
100
AcDbLine
 10
-230.7172748730247
 20
-275.0086102754029
 30
0.0
 11
-230.5198137330457
 21
-275.5065531153701
 31
0.0
  0
LINE
  5
120
330
1F
100
AcDbEntity
  8
0
100
AcDbLine
 10
-230.5198137330457
 20
-275.5065531153701
 30
0.0
 11
-230.2012009368013
 21
-275.9342588983031
 31
0.0
  0
LINE
  5
121
330
1F
100
AcDbEntity
  8
0
100
AcDbLine
 10
-230.2012009368013
 20
-275.9342588983031
 30
0.0
 11
-229.7831464233473
 21
-276.2625693890351
 31
0.0
  0
LINE
  5
122
330
1F
100
AcDbEntity
  8
0
100
AcDbLine
 10
-229.7831464233473
 20
-276.2625693890351
 30
0.0
 11
-229.2941426337483
 21
-276.4690999689987
 31
0.0
  0
LINE
  5
123
330
1F
100
AcDbEntity
  8
0
100
AcDbLine
 10
-229.2941426337483
 20
-276.4690999689987
 30
0.0
 11
-228.7675220706083
 21
-276.5397680058156
 31
0.0
  0
LINE
  5
124
330
1F
100
AcDbEntity
  8
0
100
AcDbLine
 10
-228.7675220706083
 20
-276.5397680058156
 30
0.0
 11
-228.2391836789739
 21
-276.469754682807
 31
0.0
  0
LINE
  5
125
330
1F
100
AcDbEntity
  8
0
100
AcDbLine
 10
-228.2391836789739
 20
-276.469754682807
 30
0.0
 11
-227.74514354523
 21
-276.2638341725223
 31
0.0
  0
LINE
  5
126
330
1F
100
AcDbEntity
  8
0
100
AcDbLine
 10
-227.74514354523
 20
-276.2638341725223
 30
0.0
 11
-227.3190775931267
 21
-275.9360475127275
 31
0.0
  0
LINE
  5
127
330
1F
100
AcDbEntity
  8
0
100
AcDbLine
 10
-227.3190775931267
 20
-275.9360475127275
 30
0.0
 11
-226.990024506794
 21
-275.5087436166923
 31
0.0
  0
LINE
  5
128
330
1F
100
AcDbEntity
  8
0
100
AcDbLine
 10
-226.990024506794
 20
-275.5087436166923
 30
0.0
 11
-226.7804059905286
 21
-275.0110533387519
 31
0.0
  0
LINE
  5
129
330
1F
100
AcDbEntity
  8
0
100
AcDbLine
 10
-226.7804059905286
 20
-275.0110533387519
 30
0.0
 11
-226.704499496108
 21
-274.4769013606103
 31
0.0
  0
LINE
  5
12A
330
1F
100
AcDbEntity
  8
0
100
AcDbLine
 10
-226.704499496108
 20
-274.4769013606103
 30
0.0
 11
-226.7674673028934
 21
-273.9426921606744
 31
0.0
  0
LINE
  5
12B
330
1F
100
AcDbEntity
  8
0
100
AcDbLine
 10
-226.7674673028934
 20
-273.9426921606744
 30
0.0
 11
-226.965007563672
 21
-273.4448283315878
 31
0.0
  0
LINE
  5
12C
330
1F
100
AcDbEntity
  8
0
100
AcDbLine
 10
-226.965007563672
 20
-273.4448283315878
 30
0.0
 11
-227.2836503339541
 21
-273.0172305764646
 31
0.0
  0
LINE
  5
12D
330
1F
100
AcDbEntity
  8
0
100
AcDbLine
 10
-227.2836503339541
 20
-273.0172305764646
 30
0.0
 11
-227.701677643164
 21
-272.6890281845062
 31
0.0
  0
LINE
  5
12E
330
1F
100
AcDbEntity
  8
0
100
AcDbLine
 10
-227.701677643164
 20
-272.6890281845062
 30
0.0
 11
-228.1906043395926
 21
-272.4825768093009
 31
0.0
  0
LINE
  5
12F
330
1F
100
AcDbEntity
  8
0
100
AcDbLine
 10
-228.1906043395926
 20
-272.4825768093009
 30
0.0
 11
-228.7171185776881
 21
-272.4119378603763
 31
0.0
  0
LINE
  5
130
330
1F
100
AcDbEntity
  8
0
100
AcDbLine
 10
-217.2246547734592
 20
-249.6051373399361
 30
0.0
 11
-217.7522340251403
 21
-249.6749599514643
 31
0.0
  0
LINE
  5
131
330
1F
100
AcDbEntity
  8
0
100
AcDbLine
 10
-217.7522340251403
 20
-249.6749599514643
 30
0.0
 11
-218.2455034792504
 21
-249.8803252941509
 31
0.0
  0
LINE
  5
132
330
1F
100
AcDbEntity
  8
0
100
AcDbLine
 10
-218.2455034792504
 20
-249.8803252941509
 30
0.0
 11
-218.6708555181118
 21
-250.2072459230598
 31
0.0
  0
LINE
  5
133
330
1F
100
AcDbEntity
  8
0
100
AcDbLine
 10
-218.6708555181118
 20
-250.2072459230598
 30
0.0
 11
-218.9993060852332
 21
-250.6334534901243
 31
0.0
  0
LINE
  5
134
330
1F
100
AcDbEntity
  8
0
100
AcDbLine
 10
-218.9993060852332
 20
-250.6334534901243
 30
0.0
 11
-219.2084691015689
 21
-251.1299134147948
 31
0.0
  0
LINE
  5
135
330
1F
100
AcDbEntity
  8
0
100
AcDbLine
 10
-219.2084691015689
 20
-251.1299134147948
 30
0.0
 11
-219.2840827668382
 21
-251.6628006596385
 31
0.0
  0
LINE
  5
136
330
1F
100
AcDbEntity
  8
0
100
AcDbLine
 10
-219.2840827668382
 20
-251.6628006596385
 30
0.0
 11
-219.2209835365462
 21
-252.1958027374323
 31
0.0
  0
LINE
  5
137
330
1F
100
AcDbEntity
  8
0
100
AcDbLine
 10
-219.2209835365462
 20
-252.1958027374323
 30
0.0
 11
-219.0234608485034
 21
-252.6925935700161
 31
0.0
  0
LINE
  5
138
330
1F
100
AcDbEntity
  8
0
100
AcDbLine
 10
-219.0234608485034
 20
-252.6925935700161
 30
0.0
 11
-218.7049676641299
 21
-253.1193098181479
 31
0.0
  0
LINE
  5
139
330
1F
100
AcDbEntity
  8
0
100
AcDbLine
 10
-218.7049676641299
 20
-253.1193098181479
 30
0.0
 11
-218.287205784343
 21
-253.4468607192529
 31
0.0
  0
LINE
  5
13A
330
1F
100
AcDbEntity
  8
0
100
AcDbLine
 10
-218.287205784343
 20
-253.4468607192529
 30
0.0
 11
-217.7986477077072
 21
-253.6529134570064
 31
0.0
  0
LINE
  5
13B
330
1F
100
AcDbEntity
  8
0
100
AcDbLine
 10
-217.7986477077072
 20
-253.6529134570064
 30
0.0
 11
-217.2725955490092
 21
-253.7234179906366
 31
0.0
  0
LINE
  5
13C
330
1F
100
AcDbEntity
  8
0
100
AcDbLine
 10
-217.2725955490092
 20
-253.7234179906366
 30
0.0
 11
-216.7449094945829
 21
-253.6535666560193
 31
0.0
  0
LINE
  5
13D
330
1F
100
AcDbEntity
  8
0
100
AcDbLine
 10
-216.7449094945829
 20
-253.6535666560193
 30
0.0
 11
-216.2515611486833
 21
-253.4481225764721
 31
0.0
  0
LINE
  5
13E
330
1F
100
AcDbEntity
  8
0
100
AcDbLine
 10
-216.2515611486833
 20
-253.4481225764721
 30
0.0
 11
-215.8261792679801
 21
-253.1210942944109
 31
0.0
  0
LINE
  5
13F
330
1F
100
AcDbEntity
  8
0
100
AcDbLine
 10
-215.8261792679801
 20
-253.1210942944109
 30
0.0
 11
-215.4977559050608
 21
-252.6947790034764
 31
0.0
  0
LINE
  5
140
330
1F
100
AcDbEntity
  8
0
100
AcDbLine
 10
-215.4977559050608
 20
-252.6947790034764
 30
0.0
 11
-215.2886698496261
 21
-252.1982401487428
 31
0.0
  0
LINE
  5
141
330
1F
100
AcDbEntity
  8
0
100
AcDbLine
 10
-215.2886698496261
 20
-252.1982401487428
 30
0.0
 11
-215.213162280347
 21
-251.6653239168892
 31
0.0
  0
LINE
  5
142
330
1F
100
AcDbEntity
  8
0
100
AcDbLine
 10
-215.213162280347
 20
-251.6653239168892
 30
0.0
 11
-215.2763683133839
 21
-251.1323505621839
 31
0.0
  0
LINE
  5
143
330
1F
100
AcDbEntity
  8
0
100
AcDbLine
 10
-215.2763683133839
 20
-251.1323505621839
 30
0.0
 11
-215.4739698932148
 21
-250.635638466459
 31
0.0
  0
LINE
  5
144
330
1F
100
AcDbEntity
  8
0
100
AcDbLine
 10
-215.4739698932148
 20
-250.635638466459
 30
0.0
 11
-215.792492919432
 21
-250.2090298714793
 31
0.0
  0
LINE
  5
145
330
1F
100
AcDbEntity
  8
0
100
AcDbLine
 10
-215.792492919432
 20
-250.2090298714793
 30
0.0
 11
-216.2102275950178
 21
-249.8815866942437
 31
0.0
  0
LINE
  5
146
330
1F
100
AcDbEntity
  8
0
100
AcDbLine
 10
-216.2102275950178
 20
-249.8815866942437
 30
0.0
 11
-216.6987087107518
 21
-249.6756128865556
 31
0.0
  0
LINE
  5
147
330
1F
100
AcDbEntity
  8
0
100
AcDbLine
 10
-216.6987087107518
 20
-249.6756128865556
 30
0.0
 11
-217.2246547734592
 21
-249.6051373399361
 31
0.0
  0
LINE
  5
148
330
1F
100
AcDbEntity
  8
0
100
AcDbLine
 10
-239.8381888123151
 20
-249.5911223778929
 30
0.0
 11
-240.365847899993
 21
-249.6609448899971
 31
0.0
  0
LINE
  5
149
330
1F
100
AcDbEntity
  8
0
100
AcDbLine
 10
-240.365847899993
 20
-249.6609448899971
 30
0.0
 11
-240.8593529248524
 21
-249.8663099402507
 31
0.0
  0
LINE
  5
14A
330
1F
100
AcDbEntity
  8
0
100
AcDbLine
 10
-240.8593529248524
 20
-249.8663099402507
 30
0.0
 11
-241.2850802244818
 21
-250.1932301036304
 31
0.0
  0
LINE
  5
14B
330
1F
100
AcDbEntity
  8
0
100
AcDbLine
 10
-241.2850802244818
 20
-250.1932301036304
 30
0.0
 11
-241.6140201813358
 21
-250.6194370637716
 31
0.0
  0
LINE
  5
14C
330
1F
100
AcDbEntity
  8
0
100
AcDbLine
 10
-241.6140201813358
 20
-250.6194370637716
 30
0.0
 11
-241.8237533776364
 21
-251.1158962814617
 31
0.0
  0
LINE
  5
14D
330
1F
100
AcDbEntity
  8
0
100
AcDbLine
 10
-241.8237533776364
 20
-251.1158962814617
 30
0.0
 11
-241.8999791653468
 21
-251.6487827674318
 31
0.0
  0
LINE
  5
14E
330
1F
100
AcDbEntity
  8
0
100
AcDbLine
 10
-241.8999791653468
 20
-251.6487827674318
 30
0.0
 11
-241.8374922881857
 21
-252.1817840861672
 31
0.0
  0
LINE
  5
14F
330
1F
100
AcDbEntity
  8
0
100
AcDbLine
 10
-241.8374922881857
 20
-252.1817840861672
 30
0.0
 11
-241.6405404498307
 21
-252.6785742112437
 31
0.0
  0
LINE
  5
150
330
1F
100
AcDbEntity
  8
0
100
AcDbLine
 10
-241.6405404498307
 20
-252.6785742112437
 30
0.0
 11
-241.3225377002144
 21
-253.1052898516505
 31
0.0
  0
LINE
  5
151
330
1F
100
AcDbEntity
  8
0
100
AcDbLine
 10
-241.3225377002144
 20
-253.1052898516505
 30
0.0
 11
-240.9051524055851
 21
-253.432840286253
 31
0.0
  0
LINE
  5
152
330
1F
100
AcDbEntity
  8
0
100
AcDbLine
 10
-240.9051524055851
 20
-253.432840286253
 30
0.0
 11
-240.4168313884819
 21
-253.6388927305382
 31
0.0
  0
LINE
  5
153
330
1F
100
AcDbEntity
  8
0
100
AcDbLine
 10
-240.4168313884819
 20
-253.6388927305382
 30
0.0
 11
-239.8908605994036
 21
-253.7093971637521
 31
0.0
  0
LINE
  5
154
330
1F
100
AcDbEntity
  8
0
100
AcDbLine
 10
-239.8908605994036
 20
-253.7093971637521
 30
0.0
 11
-239.3630946761369
 21
-253.6395459286206
 31
0.0
  0
LINE
  5
155
330
1F
100
AcDbEntity
  8
0
100
AcDbLine
 10
-239.3630946761369
 20
-253.6395459286206
 30
0.0
 11
-238.869510669148
 21
-253.434102141675
 31
0.0
  0
LINE
  5
156
330
1F
100
AcDbEntity
  8
0
100
AcDbLine
 10
-238.869510669148
 20
-253.434102141675
 30
0.0
 11
-238.4437534040481
 21
-253.1070743253727
 31
0.0
  0
LINE
  5
157
330
1F
100
AcDbEntity
  8
0
100
AcDbLine
 10
-238.4437534040481
 20
-253.1070743253727
 30
0.0
 11
-238.1148405276044
 21
-252.6807596415915
 31
0.0
  0
LINE
  5
158
330
1F
100
AcDbEntity
  8
0
100
AcDbLine
 10
-238.1148405276044
 20
-252.6807596415915
 30
0.0
 11
-237.9051842014223
 21
-252.1842214940073
 31
0.0
  0
LINE
  5
159
330
1F
100
AcDbEntity
  8
0
100
AcDbLine
 10
-237.9051842014223
 20
-252.1842214940073
 30
0.0
 11
-237.8290644762509
 21
-251.6513060210891
 31
0.0
  0
LINE
  5
15A
330
1F
100
AcDbEntity
  8
0
100
AcDbLine
 10
-237.8290644762509
 20
-251.6513060210891
 30
0.0
 11
-237.8916581890007
 21
-251.1183334253801
 31
0.0
  0
LINE
  5
15B
330
1F
100
AcDbEntity
  8
0
100
AcDbLine
 10
-237.8916581890007
 20
-251.1183334253801
 30
0.0
 11
-238.0886890094847
 21
-250.6216220369949
 31
0.0
  0
LINE
  5
15C
330
1F
100
AcDbEntity
  8
0
100
AcDbLine
 10
-238.0886890094847
 20
-250.6216220369949
 30
0.0
 11
-238.4067217245724
 21
-250.1950140495099
 31
0.0
  0
LINE
  5
15D
330
1F
100
AcDbEntity
  8
0
100
AcDbLine
 10
-238.4067217245724
 20
-250.1950140495099
 30
0.0
 11
-238.8240799387916
 21
-249.8675713385478
 31
0.0
  0
LINE
  5
15E
330
1F
100
AcDbEntity
  8
0
100
AcDbLine
 10
-238.8240799387916
 20
-249.8675713385478
 30
0.0
 11
-239.312324085777
 21
-249.6615978241585
 31
0.0
  0
LINE
  5
15F
330
1F
100
AcDbEntity
  8
0
100
AcDbLine
 10
-239.312324085777
 20
-249.6615978241585
 30
0.0
 11
-239.8381888123151
 21
-249.5911223778929
 31
0.0
  0
LINE
  5
160
330
1F
100
AcDbEntity
  8
0
100
AcDbLine
 10
15.50737855260837
 20
-272.5634738378908
 30
0.0
 11
14.98001045699241
 21
-272.6334594141151
 31
0.0
  0
LINE
  5
161
330
1F
100
AcDbEntity
  8
0
100
AcDbLine
 10
14.98001045699241
 20
-272.6334594141151
 30
0.0
 11
14.48859655897001
 21
-272.8393040791057
 31
0.0
  0
LINE
  5
162
330
1F
100
AcDbEntity
  8
0
100
AcDbLine
 10
14.48859655897001
 20
-272.8393040791057
 30
0.0
 11
14.06661809793545
 21
-273.1669877504505
 31
0.0
  0
LINE
  5
163
330
1F
100
AcDbEntity
  8
0
100
AcDbLine
 10
14.06661809793545
 20
-273.1669877504505
 30
0.0
 11
13.74282934708932
 21
-273.5941901176708
 31
0.0
  0
LINE
  5
164
330
1F
100
AcDbEntity
  8
0
100
AcDbLine
 10
13.74282934708932
 20
-273.5941901176708
 30
0.0
 11
13.53929882425895
 21
-274.0918088439266
 31
0.0
  0
LINE
  5
165
330
1F
100
AcDbEntity
  8
0
100
AcDbLine
 10
13.53929882425895
 20
-274.0918088439266
 30
0.0
 11
13.46990459599648
 21
-274.6259399490021
 31
0.0
  0
LINE
  5
166
330
1F
100
AcDbEntity
  8
0
100
AcDbLine
 10
13.46990459599648
 20
-274.6259399490021
 30
0.0
 11
13.53938642152153
 21
-275.1601861888088
 31
0.0
  0
LINE
  5
167
330
1F
100
AcDbEntity
  8
0
100
AcDbLine
 10
13.53938642152153
 20
-275.1601861888088
 30
0.0
 11
13.74301989063311
 21
-275.6581366875594
 31
0.0
  0
LINE
  5
168
330
1F
100
AcDbEntity
  8
0
100
AcDbLine
 10
13.74301989063311
 20
-275.6581366875594
 30
0.0
 11
14.06693552747963
 21
-276.085849049125
 31
0.0
  0
LINE
  5
169
330
1F
100
AcDbEntity
  8
0
100
AcDbLine
 10
14.06693552747963
 20
-276.085849049125
 30
0.0
 11
14.48906187947525
 21
-276.4141645897666
 31
0.0
  0
LINE
  5
16A
330
1F
100
AcDbEntity
  8
0
100
AcDbLine
 10
14.48906187947525
 20
-276.4141645897666
 30
0.0
 11
14.98062888258926
 21
-276.6206983465245
 31
0.0
  0
LINE
  5
16B
330
1F
100
AcDbEntity
  8
0
100
AcDbLine
 10
14.98062888258926
 20
-276.6206983465245
 30
0.0
 11
15.50812925725079
 21
-276.6913674703447
 31
0.0
  0
LINE
  5
16C
330
1F
100
AcDbEntity
  8
0
100
AcDbLine
 10
15.50812925725079
 20
-276.6913674703447
 30
0.0
 11
16.03560406452615
 21
-276.6213530704034
 31
0.0
  0
LINE
  5
16D
330
1F
100
AcDbEntity
  8
0
100
AcDbLine
 10
16.03560406452615
 20
-276.6213530704034
 30
0.0
 11
16.52709610540664
 21
-276.4154293927081
 31
0.0
  0
LINE
  5
16E
330
1F
100
AcDbEntity
  8
0
100
AcDbLine
 10
16.52709610540664
 20
-276.4154293927081
 30
0.0
 11
16.94910320218207
 21
-276.0876376910611
 31
0.0
  0
LINE
  5
16F
330
1F
100
AcDbEntity
  8
0
100
AcDbLine
 10
16.94910320218207
 20
-276.0876376910611
 30
0.0
 11
17.27286340872905
 21
-275.6603272225737
 31
0.0
  0
LINE
  5
170
330
1F
100
AcDbEntity
  8
0
100
AcDbLine
 10
17.27286340872905
 20
-275.6603272225737
 30
0.0
 11
17.47631585564208
 21
-275.1626292897334
 31
0.0
  0
LINE
  5
171
330
1F
100
AcDbEntity
  8
0
100
AcDbLine
 10
17.47631585564208
 20
-275.1626292897334
 30
0.0
 11
17.54560339674827
 21
-274.6284690960953
 31
0.0
  0
LINE
  5
172
330
1F
100
AcDbEntity
  8
0
100
AcDbLine
 10
17.54560339674827
 20
-274.6284690960953
 30
0.0
 11
17.47601485956502
 21
-274.0942516800046
 31
0.0
  0
LINE
  5
173
330
1F
100
AcDbEntity
  8
0
100
AcDbLine
 10
17.47601485956502
 20
-274.0942516800046
 30
0.0
 11
17.27230324759547
 21
-273.5963801939579
 31
0.0
  0
LINE
  5
174
330
1F
100
AcDbEntity
  8
0
100
AcDbLine
 10
17.27230324759547
 20
-273.5963801939579
 30
0.0
 11
16.94835897500671
 21
-273.1687758626938
 31
0.0
  0
LINE
  5
175
330
1F
100
AcDbEntity
  8
0
100
AcDbLine
 10
16.94835897500671
 20
-273.1687758626938
 30
0.0
 11
16.52626116730967
 21
-272.8405684233197
 31
0.0
  0
LINE
  5
176
330
1F
100
AcDbEntity
  8
0
100
AcDbLine
 10
16.52626116730967
 20
-272.8405684233197
 30
0.0
 11
16.0347722401129
 21
-272.6341138731478
 31
0.0
  0
LINE
  5
177
330
1F
100
AcDbEntity
  8
0
100
AcDbLine
 10
16.0347722401129
 20
-272.6341138731478
 30
0.0
 11
15.50737855260837
 21
-272.5634738378908
 31
0.0
  0
LINE
  5
178
330
1F
100
AcDbEntity
  8
0
100
AcDbLine
 10
26.71729486387209
 20
-249.7563227830896
 30
0.0
 11
26.19057684478759
 21
-249.8261464671532
 31
0.0
  0
LINE
  5
179
330
1F
100
AcDbEntity
  8
0
100
AcDbLine
 10
26.19057684478759
 20
-249.8261464671532
 30
0.0
 11
25.69984861535782
 21
-250.0315149644495
 31
0.0
  0
LINE
  5
17A
330
1F
100
AcDbEntity
  8
0
100
AcDbLine
 10
25.69984861535782
 20
-250.0315149644495
 30
0.0
 11
25.27854471033115
 21
-250.3584406152428
 31
0.0
  0
LINE
  5
17B
330
1F
100
AcDbEntity
  8
0
100
AcDbLine
 10
25.27854471033115
 20
-250.3584406152428
 30
0.0
 11
24.95537344577524
 21
-250.7846547294814
 31
0.0
  0
LINE
  5
17C
330
1F
100
AcDbEntity
  8
0
100
AcDbLine
 10
24.95537344577524
 20
-250.7846547294814
 30
0.0
 11
24.75236125838552
 21
-251.2811222806831
 31
0.0
  0
LINE
  5
17D
330
1F
100
AcDbEntity
  8
0
100
AcDbLine
 10
24.75236125838552
 20
-251.2811222806831
 30
0.0
 11
24.68335087746383
 21
-251.8140177118629
 31
0.0
  0
LINE
  5
17E
330
1F
100
AcDbEntity
  8
0
100
AcDbLine
 10
24.68335087746383
 20
-251.8140177118629
 30
0.0
 11
24.75305588066425
 21
-252.3470279779781
 31
0.0
  0
LINE
  5
17F
330
1F
100
AcDbEntity
  8
0
100
AcDbLine
 10
24.75305588066425
 20
-252.3470279779781
 30
0.0
 11
24.95673662229677
 21
-252.8438264427827
 31
0.0
  0
LINE
  5
180
330
1F
100
AcDbEntity
  8
0
100
AcDbLine
 10
24.95673662229677
 20
-252.8438264427827
 30
0.0
 11
25.2805203824204
 21
-253.2705492467294
 31
0.0
  0
LINE
  5
181
330
1F
100
AcDbEntity
  8
0
100
AcDbLine
 10
25.2805203824204
 20
-253.2705492467294
 30
0.0
 11
25.70234468287902
 21
-253.5981051802295
 31
0.0
  0
LINE
  5
182
330
1F
100
AcDbEntity
  8
0
100
AcDbLine
 10
25.70234468287902
 20
-253.5981051802295
 30
0.0
 11
26.19346004441997
 21
-253.8041610837578
 31
0.0
  0
LINE
  5
183
330
1F
100
AcDbEntity
  8
0
100
AcDbLine
 10
26.19346004441997
 20
-253.8041610837578
 30
0.0
 11
26.72038997965445
 21
-253.8746667006207
 31
0.0
  0
LINE
  5
184
330
1F
100
AcDbEntity
  8
0
100
AcDbLine
 10
26.72038997965445
 20
-253.8746667006207
 30
0.0
 11
27.24721444716791
 21
-253.8048142928064
 31
0.0
  0
LINE
  5
185
330
1F
100
AcDbEntity
  8
0
100
AcDbLine
 10
27.24721444716791
 20
-253.8048142928064
 30
0.0
 11
27.73802059383601
 21
-253.5993670568355
 31
0.0
  0
LINE
  5
186
330
1F
100
AcDbEntity
  8
0
100
AcDbLine
 10
27.73802059383601
 20
-253.5993670568355
 30
0.0
 11
28.15935300704907
 21
-253.2723337504091
 31
0.0
  0
LINE
  5
187
330
1F
100
AcDbEntity
  8
0
100
AcDbLine
 10
28.15935300704907
 20
-253.2723337504091
 30
0.0
 11
28.48249573199471
 21
-252.8460119098179
 31
0.0
  0
LINE
  5
188
330
1F
100
AcDbEntity
  8
0
100
AcDbLine
 10
28.48249573199471
 20
-252.8460119098179
 30
0.0
 11
28.68542997914335
 21
-252.3494654267345
 31
0.0
  0
LINE
  5
189
330
1F
100
AcDbEntity
  8
0
100
AcDbLine
 10
28.68542997914335
 20
-252.3494654267345
 30
0.0
 11
28.75433390321736
 21
-251.8165410078765
 31
0.0
  0
LINE
  5
18A
330
1F
100
AcDbEntity
  8
0
100
AcDbLine
 10
28.75433390321736
 20
-251.8165410078765
 30
0.0
 11
28.6845224515893
 21
-251.2835594655115
 31
0.0
  0
LINE
  5
18B
330
1F
100
AcDbEntity
  8
0
100
AcDbLine
 10
28.6845224515893
 20
-251.2835594655115
 30
0.0
 11
28.48076379271847
 21
-250.7868397393804
 31
0.0
  0
LINE
  5
18C
330
1F
100
AcDbEntity
  8
0
100
AcDbLine
 10
28.48076379271847
 20
-250.7868397393804
 30
0.0
 11
28.15695152440714
 21
-250.3602245910665
 31
0.0
  0
LINE
  5
18D
330
1F
100
AcDbEntity
  8
0
100
AcDbLine
 10
28.15695152440714
 20
-250.3602245910665
 30
0.0
 11
27.7351557635578
 21
-250.0327763839193
 31
0.0
  0
LINE
  5
18E
330
1F
100
AcDbEntity
  8
0
100
AcDbLine
 10
27.7351557635578
 20
-250.0327763839193
 30
0.0
 11
27.24411834225828
 21
-249.8267994122741
 31
0.0
  0
LINE
  5
18F
330
1F
100
AcDbEntity
  8
0
100
AcDbLine
 10
27.24411834225828
 20
-249.8267994122741
 30
0.0
 11
26.71729486387209
 21
-249.7563227830896
 31
0.0
  0
LINE
  5
190
330
1F
100
AcDbEntity
  8
0
100
AcDbLine
 10
4.103413462463122
 20
-249.7423076057652
 30
0.0
 11
3.576615604924461
 21
-249.8121311904021
 31
0.0
  0
LINE
  5
191
330
1F
100
AcDbEntity
  8
0
100
AcDbLine
 10
3.576615604924461
 20
-249.8121311904021
 30
0.0
 11
3.085651797502742
 21
-250.0174993952592
 31
0.0
  0
LINE
  5
192
330
1F
100
AcDbEntity
  8
0
100
AcDbLine
 10
3.085651797502742
 20
-250.0174993952592
 30
0.0
 11
2.663972620174778
 21
-250.3444245805123
 31
0.0
  0
LINE
  5
193
330
1F
100
AcDbEntity
  8
0
100
AcDbLine
 10
2.663972620174778
 20
-250.3444245805123
 30
0.0
 11
2.340311950845739
 21
-250.7706380878136
 31
0.0
  0
LINE
  5
194
330
1F
100
AcDbEntity
  8
0
100
AcDbLine
 10
2.340311950845739
 20
-250.7706380878136
 30
0.0
 11
2.13672956597201
 21
-251.2671049320189
 31
0.0
  0
LINE
  5
195
330
1F
100
AcDbEntity
  8
0
100
AcDbLine
 10
2.13672956597201
 20
-251.2671049320189
 30
0.0
 11
2.067107043800632
 21
-251.7999996043073
 31
0.0
  0
LINE
  5
196
330
1F
100
AcDbEntity
  8
0
100
AcDbLine
 10
2.067107043800632
 20
-251.7999996043073
 30
0.0
 11
2.136199675055521
 21
-252.3330091113467
 31
0.0
  0
LINE
  5
197
330
1F
100
AcDbEntity
  8
0
100
AcDbLine
 10
2.136199675055521
 20
-252.3330091113467
 30
0.0
 11
2.339309549462735
 21
-252.8298068686276
 31
0.0
  0
LINE
  5
198
330
1F
100
AcDbEntity
  8
0
100
AcDbLine
 10
2.339309549462735
 20
-252.8298068686276
 30
0.0
 11
2.662602859763055
 21
-253.2565290648357
 31
0.0
  0
LINE
  5
199
330
1F
100
AcDbEntity
  8
0
100
AcDbLine
 10
2.662602859763055
 20
-253.2565290648357
 30
0.0
 11
3.084050563497235
 21
-253.5840845318216
 31
0.0
  0
LINE
  5
19A
330
1F
100
AcDbEntity
  8
0
100
AcDbLine
 10
3.084050563497235
 20
-253.5840845318216
 30
0.0
 11
3.574928858226778
 21
-253.7901401418751
 31
0.0
  0
LINE
  5
19B
330
1F
100
AcDbEntity
  8
0
100
AcDbLine
 10
3.574928858226778
 20
-253.7901401418751
 30
0.0
 11
4.101777421347089
 21
-253.8606456583204
 31
0.0
  0
LINE
  5
19C
330
1F
100
AcDbEntity
  8
0
100
AcDbLine
 10
4.101777421347089
 20
-253.8606456583204
 30
0.0
 11
4.628681760160776
 21
-253.7907933499937
 31
0.0
  0
LINE
  5
19D
330
1F
100
AcDbEntity
  8
0
100
AcDbLine
 10
4.628681760160776
 20
-253.7907933499937
 30
0.0
 11
5.119723575164572
 21
-253.5853464066304
 31
0.0
  0
LINE
  5
19E
330
1F
100
AcDbEntity
  8
0
100
AcDbLine
 10
5.119723575164572
 20
-253.5853464066304
 30
0.0
 11
5.541431384313283
 21
-253.2583135659736
 31
0.0
  0
LINE
  5
19F
330
1F
100
AcDbEntity
  8
0
100
AcDbLine
 10
5.541431384313283
 20
-253.2583135659736
 30
0.0
 11
5.865063637828543
 21
-252.8319923325504
 31
0.0
  0
LINE
  5
1A0
330
1F
100
AcDbEntity
  8
0
100
AcDbLine
 10
5.865063637828543
 20
-252.8319923325504
 30
0.0
 11
6.068568173249183
 21
-252.335446556632
 31
0.0
  0
LINE
  5
1A1
330
1F
100
AcDbEntity
  8
0
100
AcDbLine
 10
6.068568173249183
 20
-252.335446556632
 30
0.0
 11
6.138084272025665
 21
-251.8025228967275
 31
0.0
  0
LINE
  5
1A2
330
1F
100
AcDbEntity
  8
0
100
AcDbLine
 10
6.138084272025665
 20
-251.8025228967275
 30
0.0
 11
6.068885159496562
 21
-251.2695421133766
 31
0.0
  0
LINE
  5
1A3
330
1F
100
AcDbEntity
  8
0
100
AcDbLine
 10
6.068885159496562
 20
-251.2695421133766
 30
0.0
 11
5.865697277507111
 21
-250.7728230946011
 31
0.0
  0
LINE
  5
1A4
330
1F
100
AcDbEntity
  8
0
100
AcDbLine
 10
5.865697277507111
 20
-250.7728230946011
 30
0.0
 11
5.542375335385466
 21
-250.3462085537956
 31
0.0
  0
LINE
  5
1A5
330
1F
100
AcDbEntity
  8
0
100
AcDbLine
 10
5.542375335385466
 20
-250.3462085537956
 30
0.0
 11
5.120956047463801
 21
-250.0187608129327
 31
0.0
  0
LINE
  5
1A6
330
1F
100
AcDbEntity
  8
0
100
AcDbLine
 10
5.120956047463801
 20
-250.0187608129327
 30
0.0
 11
4.630155602187638
 21
-249.8127841345934
 31
0.0
  0
LINE
  5
1A7
330
1F
100
AcDbEntity
  8
0
100
AcDbLine
 10
4.630155602187638
 20
-249.8127841345934
 30
0.0
 11
4.103413462463122
 21
-249.7423076057652
 31
0.0
  0
LINE
  5
1A8
330
1F
100
AcDbEntity
  8
0
100
AcDbLine
 10
26.45917860230157
 20
2.31757559587416
 30
0.0
 11
25.93511720715248
 21
2.248993822542893
 31
0.0
  0
LINE
  5
1A9
330
1F
100
AcDbEntity
  8
0
100
AcDbLine
 10
25.93511720715248
 20
2.248993822542893
 30
0.0
 11
25.44686230152588
 21
2.047278102058639
 31
0.0
  0
LINE
  5
1AA
330
1F
100
AcDbEntity
  8
0
100
AcDbLine
 10
25.44686230152588
 20
2.047278102058639
 30
0.0
 11
25.0276799454829
 21
1.726167342302318
 31
0.0
  0
LINE
  5
1AB
330
1F
100
AcDbEntity
  8
0
100
AcDbLine
 10
25.0276799454829
 20
1.726167342302318
 30
0.0
 11
24.70613390357565
 21
1.307534202657608
 31
0.0
  0
LINE
  5
1AC
330
1F
100
AcDbEntity
  8
0
100
AcDbLine
 10
24.70613390357565
 20
1.307534202657608
 30
0.0
 11
24.50413982745289
 21
0.8198973234543272
 31
0.0
  0
LINE
  5
1AD
330
1F
100
AcDbEntity
  8
0
100
AcDbLine
 10
24.50413982745289
 20
0.8198973234543272
 30
0.0
 11
24.4354709853643
 21
0.2964806453404499
 31
0.0
  0
LINE
  5
1AE
330
1F
100
AcDbEntity
  8
0
100
AcDbLine
 10
24.4354709853643
 20
0.2964806453404499
 30
0.0
 11
24.50481757257322
 21
-0.2270486820792526
 31
0.0
  0
LINE
  5
1AF
330
1F
100
AcDbEntity
  8
0
100
AcDbLine
 10
24.50481757257322
 20
-0.2270486820792526
 30
0.0
 11
24.70746426182343
 21
-0.7150101980679268
 31
0.0
  0
LINE
  5
1B0
330
1F
100
AcDbEntity
  8
0
100
AcDbLine
 10
24.70746426182343
 20
-0.7150101980679268
 30
0.0
 11
25.02960872384859
 21
-1.134142445414868
 31
0.0
  0
LINE
  5
1B1
330
1F
100
AcDbEntity
  8
0
100
AcDbLine
 10
25.02960872384859
 20
-1.134142445414868
 30
0.0
 11
25.44930016738851
 21
-1.45587174304683
 31
0.0
  0
LINE
  5
1B2
330
1F
100
AcDbEntity
  8
0
100
AcDbLine
 10
25.44930016738851
 20
-1.45587174304683
 30
0.0
 11
25.93793449269341
 21
-1.658262251866875
 31
0.0
  0
LINE
  5
1B3
330
1F
100
AcDbEntity
  8
0
100
AcDbLine
 10
25.93793449269341
 20
-1.658262251866875
 30
0.0
 11
26.46220436938869
 21
-1.727513685170798
 31
0.0
  0
LINE
  5
1B4
330
1F
100
AcDbEntity
  8
0
100
AcDbLine
 10
26.46220436938869
 20
-1.727513685170798
 30
0.0
 11
26.98637114177958
 21
-1.658903841370586
 31
0.0
  0
LINE
  5
1B5
330
1F
100
AcDbEntity
  8
0
100
AcDbLine
 10
26.98637114177958
 20
-1.658903841370586
 30
0.0
 11
27.47470318131455
 21
-1.457111173014762
 31
0.0
  0
LINE
  5
1B6
330
1F
100
AcDbEntity
  8
0
100
AcDbLine
 10
27.47470318131455
 20
-1.457111173014762
 30
0.0
 11
27.89391375996485
 21
-1.135895206102762
 31
0.0
  0
LINE
  5
1B7
330
1F
100
AcDbEntity
  8
0
100
AcDbLine
 10
27.89391375996485
 20
-1.135895206102762
 30
0.0
 11
28.21543155095254
 21
-0.7171567901909065
 31
0.0
  0
LINE
  5
1B8
330
1F
100
AcDbEntity
  8
0
100
AcDbLine
 10
28.21543155095254
 20
-0.7171567901909065
 30
0.0
 11
28.41734847244227
 21
-0.2294427743020439
 31
0.0
  0
LINE
  5
1B9
330
1F
100
AcDbEntity
  8
0
100
AcDbLine
 10
28.41734847244227
 20
-0.2294427743020439
 30
0.0
 11
28.4859119297052
 21
0.2940022322043757
 31
0.0
  0
LINE
  5
1BA
330
1F
100
AcDbEntity
  8
0
100
AcDbLine
 10
28.4859119297052
 20
0.2940022322043757
 30
0.0
 11
28.41645996525579
 21
0.8175034891556244
 31
0.0
  0
LINE
  5
1BB
330
1F
100
AcDbEntity
  8
0
100
AcDbLine
 10
28.41645996525579
 20
0.8175034891556244
 30
0.0
 11
28.21373614209736
 21
1.305388057272634
 31
0.0
  0
LINE
  5
1BC
330
1F
100
AcDbEntity
  8
0
100
AcDbLine
 10
28.21373614209736
 20
1.305388057272634
 30
0.0
 11
27.89156345746429
 21
1.724415097464117
 31
0.0
  0
LINE
  5
1BD
330
1F
100
AcDbEntity
  8
0
100
AcDbLine
 10
27.89156345746429
 20
1.724415097464117
 30
0.0
 11
27.47190026484137
 21
2.046039118832244
 31
0.0
  0
LINE
  5
1BE
330
1F
100
AcDbEntity
  8
0
100
AcDbLine
 10
27.47190026484137
 20
2.046039118832244
 30
0.0
 11
26.98334309417007
 21
2.248352490964409
 31
0.0
  0
LINE
  5
1BF
330
1F
100
AcDbEntity
  8
0
100
AcDbLine
 10
26.98334309417007
 20
2.248352490964409
 30
0.0
 11
26.45917860230157
 21
2.31757559587416
 31
0.0
  0
LINE
  5
1C0
330
1F
100
AcDbEntity
  8
0
100
AcDbLine
 10
4.214918219080162
 20
2.33118515866403
 30
0.0
 11
3.690778686664127
 21
2.262603481393108
 31
0.0
  0
LINE
  5
1C1
330
1F
100
AcDbEntity
  8
0
100
AcDbLine
 10
3.690778686664127
 20
2.262603481393108
 30
0.0
 11
3.202293222724874
 21
2.060888043454059
 31
0.0
  0
LINE
  5
1C2
330
1F
100
AcDbEntity
  8
0
100
AcDbLine
 10
3.202293222724874
 20
2.060888043454059
 30
0.0
 11
2.782743590707289
 21
1.739777733482787
 31
0.0
  0
LINE
  5
1C3
330
1F
100
AcDbEntity
  8
0
100
AcDbLine
 10
2.782743590707289
 20
1.739777733482787
 30
0.0
 11
2.460718572387821
 21
1.321145180234723
 31
0.0
  0
LINE
  5
1C4
330
1F
100
AcDbEntity
  8
0
100
AcDbLine
 10
2.460718572387821
 20
1.321145180234723
 30
0.0
 11
2.258166448825371
 21
0.8335089841030164
 31
0.0
  0
LINE
  5
1C5
330
1F
100
AcDbEntity
  8
0
100
AcDbLine
 10
2.258166448825371
 20
0.8335089841030164
 30
0.0
 11
2.188898509447426
 21
0.3100930391980282
 31
0.0
  0
LINE
  5
1C6
330
1F
100
AcDbEntity
  8
0
100
AcDbLine
 10
2.188898509447426
 20
0.3100930391980282
 30
0.0
 11
2.25764577375121
 21
-0.2134355548347782
 31
0.0
  0
LINE
  5
1C7
330
1F
100
AcDbEntity
  8
0
100
AcDbLine
 10
2.25764577375121
 20
-0.2134355548347782
 30
0.0
 11
2.459733760539006
 21
-0.7013963872440103
 31
0.0
  0
LINE
  5
1C8
330
1F
100
AcDbEntity
  8
0
100
AcDbLine
 10
2.459733760539006
 20
-0.7013963872440103
 30
0.0
 11
2.78139822398147
 21
-1.120528047419765
 31
0.0
  0
LINE
  5
1C9
330
1F
100
AcDbEntity
  8
0
100
AcDbLine
 10
2.78139822398147
 20
-1.120528047419765
 30
0.0
 11
3.200721095956613
 21
-1.442256894326395
 31
0.0
  0
LINE
  5
1CA
330
1F
100
AcDbEntity
  8
0
100
AcDbLine
 10
3.200721095956613
 20
-1.442256894326395
 30
0.0
 11
3.68912340630222
 21
-1.644647119604301
 31
0.0
  0
LINE
  5
1CB
330
1F
100
AcDbEntity
  8
0
100
AcDbLine
 10
3.68912340630222
 20
-1.644647119604301
 30
0.0
 11
4.213313644914305
 21
-1.713898455888837
 31
0.0
  0
LINE
  5
1CC
330
1F
100
AcDbEntity
  8
0
100
AcDbLine
 10
4.213313644914305
 20
-1.713898455888837
 30
0.0
 11
4.737558586556416
 21
-1.645288708208632
 31
0.0
  0
LINE
  5
1CD
330
1F
100
AcDbEntity
  8
0
100
AcDbLine
 10
4.737558586556416
 20
-1.645288708208632
 30
0.0
 11
5.226121272376248
 21
-1.443496322556829
 31
0.0
  0
LINE
  5
1CE
330
1F
100
AcDbEntity
  8
0
100
AcDbLine
 10
5.226121272376248
 20
-1.443496322556829
 30
0.0
 11
5.645699247390316
 21
-1.122280805652255
 31
0.0
  0
LINE
  5
1CF
330
1F
100
AcDbEntity
  8
0
100
AcDbLine
 10
5.645699247390316
 20
-1.122280805652255
 30
0.0
 11
5.967696135337851
 21
-0.7035429763592381
 31
0.0
  0
LINE
  5
1D0
330
1F
100
AcDbEntity
  8
0
100
AcDbLine
 10
5.967696135337851
 20
-0.7035429763592381
 30
0.0
 11
6.170171192672157
 21
-0.2158296437039833
 31
0.0
  0
LINE
  5
1D1
330
1F
100
AcDbEntity
  8
0
100
AcDbLine
 10
6.170171192672157
 20
-0.2158296437039833
 30
0.0
 11
6.239333779798732
 21
0.3076146295347023
 31
0.0
  0
LINE
  5
1D2
330
1F
100
AcDbEntity
  8
0
100
AcDbLine
 10
6.239333779798732
 20
0.3076146295347023
 30
0.0
 11
6.170481106270253
 21
0.8311151531569547
 31
0.0
  0
LINE
  5
1D3
330
1F
100
AcDbEntity
  8
0
100
AcDbLine
 10
6.170481106270253
 20
0.8311151531569547
 30
0.0
 11
5.968315897601594
 21
1.318999037857066
 31
0.0
  0
LINE
  5
1D4
330
1F
100
AcDbEntity
  8
0
100
AcDbLine
 10
5.968315897601594
 20
1.318999037857066
 30
0.0
 11
5.646623091161805
 21
1.738025491099335
 31
0.0
  0
LINE
  5
1D5
330
1F
100
AcDbEntity
  8
0
100
AcDbLine
 10
5.646623091161805
 20
1.738025491099335
 30
0.0
 11
5.227328349557197
 21
2.059649061960571
 31
0.0
  0
LINE
  5
1D6
330
1F
100
AcDbEntity
  8
0
100
AcDbLine
 10
5.227328349557197
 20
2.059649061960571
 30
0.0
 11
4.739003105439786
 21
2.261962150714568
 31
0.0
  0
LINE
  5
1D7
330
1F
100
AcDbEntity
  8
0
100
AcDbLine
 10
4.739003105439786
 20
2.261962150714568
 30
0.0
 11
4.214918219080162
 21
2.33118515866403
 31
0.0
  0
LINE
  5
1D8
330
1F
100
AcDbEntity
  8
0
100
AcDbLine
 10
-214.3458705289978
 20
2.464905800597925
 30
0.0
 11
-214.8707777926129
 21
2.396325067177751
 31
0.0
  0
LINE
  5
1D9
330
1F
100
AcDbEntity
  8
0
100
AcDbLine
 10
-214.8707777926129
 20
2.396325067177751
 30
0.0
 11
-215.36152858806
 21
2.194612405351391
 31
0.0
  0
LINE
  5
1DA
330
1F
100
AcDbEntity
  8
0
100
AcDbLine
 10
-215.36152858806
 20
2.194612405351391
 30
0.0
 11
-215.7846868596247
 21
1.873506514728028
 31
0.0
  0
LINE
  5
1DB
330
1F
100
AcDbEntity
  8
0
100
AcDbLine
 10
-215.7846868596247
 20
1.873506514728028
 30
0.0
 11
-216.1114180208524
 21
1.454879723107808
 31
0.0
  0
LINE
  5
1DC
330
1F
100
AcDbEntity
  8
0
100
AcDbLine
 10
-216.1114180208524
 20
1.454879723107808
 30
0.0
 11
-216.3194531931404
 21
0.9672502384539433
 31
0.0
  0
LINE
  5
1DD
330
1F
100
AcDbEntity
  8
0
100
AcDbLine
 10
-216.3194531931404
 20
0.9672502384539433
 30
0.0
 11
-216.3946075131323
 21
0.4438414976628281
 31
0.0
  0
LINE
  5
1DE
330
1F
100
AcDbEntity
  8
0
100
AcDbLine
 10
-216.3946075131323
 20
0.4438414976628281
 30
0.0
 11
-216.3317488462169
 21
-0.0796798905112799
 31
0.0
  0
LINE
  5
1DF
330
1F
100
AcDbEntity
  8
0
100
AcDbLine
 10
-216.3317488462169
 20
-0.0796798905112799
 30
0.0
 11
-216.1351503440401
 21
-0.5676340064433826
 31
0.0
  0
LINE
  5
1E0
330
1F
100
AcDbEntity
  8
0
100
AcDbLine
 10
-216.1351503440401
 20
-0.5676340064433826
 30
0.0
 11
-215.8182020667849
 21
-0.9867598973983436
 31
0.0
  0
LINE
  5
1E1
330
1F
100
AcDbEntity
  8
0
100
AcDbLine
 10
-215.8182020667849
 20
-0.9867598973983436
 30
0.0
 11
-215.4025005641027
 21
-1.308484315718487
 31
0.0
  0
LINE
  5
1E2
330
1F
100
AcDbEntity
  8
0
100
AcDbLine
 10
-215.4025005641027
 20
-1.308484315718487
 30
0.0
 11
-214.9163778974744
 21
-1.510871755065696
 31
0.0
  0
LINE
  5
1E3
330
1F
100
AcDbEntity
  8
0
100
AcDbLine
 10
-214.9163778974744
 20
-1.510871755065696
 30
0.0
 11
-214.3929701362569
 21
-1.580122138088622
 31
0.0
  0
LINE
  5
1E4
330
1F
100
AcDbEntity
  8
0
100
AcDbLine
 10
-214.3929701362569
 20
-1.580122138088622
 30
0.0
 11
-213.8679571491604
 21
-1.511513334837967
 31
0.0
  0
LINE
  5
1E5
330
1F
100
AcDbEntity
  8
0
100
AcDbLine
 10
-213.8679571491604
 20
-1.511513334837967
 30
0.0
 11
-213.3771282674701
 21
-1.309723726889759
 31
0.0
  0
LINE
  5
1E6
330
1F
100
AcDbEntity
  8
0
100
AcDbLine
 10
-213.3771282674701
 20
-1.309723726889759
 30
0.0
 11
-212.9539404700457
 21
-0.98851263150418
 31
0.0
  0
LINE
  5
1E7
330
1F
100
AcDbEntity
  8
0
100
AcDbLine
 10
-212.9539404700457
 20
-0.98851263150418
 30
0.0
 11
-212.6272362547703
 21
-0.5697805660124535
 31
0.0
  0
LINE
  5
1E8
330
1F
100
AcDbEntity
  8
0
100
AcDbLine
 10
-212.6272362547703
 20
-0.5697805660124535
 30
0.0
 11
-212.4192772801028
 21
-0.0820739464277521
 31
0.0
  0
LINE
  5
1E9
330
1F
100
AcDbEntity
  8
0
100
AcDbLine
 10
-212.4192772801028
 20
-0.0820739464277521
 30
0.0
 11
-212.3442279923058
 21
0.4413631221123535
 31
0.0
  0
LINE
  5
1EA
330
1F
100
AcDbEntity
  8
0
100
AcDbLine
 10
-212.3442279923058
 20
0.4413631221123535
 30
0.0
 11
-212.4071923827003
 21
0.9648564404565989
 31
0.0
  0
LINE
  5
1EB
330
1F
100
AcDbEntity
  8
0
100
AcDbLine
 10
-212.4071923827003
 20
0.9648564404565989
 30
0.0
 11
-212.6038689711203
 21
1.452733610267211
 31
0.0
  0
LINE
  5
1EC
330
1F
100
AcDbEntity
  8
0
100
AcDbLine
 10
-212.6038689711203
 20
1.452733610267211
 30
0.0
 11
-212.9208467742358
 21
1.87175429646083
 31
0.0
  0
LINE
  5
1ED
330
1F
100
AcDbEntity
  8
0
100
AcDbLine
 10
-212.9208467742358
 20
1.87175429646083
 30
0.0
 11
-213.3365213309661
 21
2.193373440909731
 31
0.0
  0
LINE
  5
1EE
330
1F
100
AcDbEntity
  8
0
100
AcDbLine
 10
-213.3365213309661
 20
2.193373440909731
 30
0.0
 11
-213.8225677999754
 21
2.395683745324738
 31
0.0
  0
LINE
  5
1EF
330
1F
100
AcDbEntity
  8
0
100
AcDbLine
 10
-213.8225677999754
 20
2.395683745324738
 30
0.0
 11
-214.3458705289978
 21
2.464905800597925
 31
0.0
  0
LINE
  5
1F0
330
1F
100
AcDbEntity
  8
0
100
AcDbLine
 10
-236.5897936210397
 20
2.478515157024094
 30
0.0
 11
-237.1147790195481
 21
2.409934519663641
 31
0.0
  0
LINE
  5
1F1
330
1F
100
AcDbEntity
  8
0
100
AcDbLine
 10
-237.1147790195481
 20
2.409934519663641
 30
0.0
 11
-237.6057603663104
 21
2.208222140373844
 31
0.0
  0
LINE
  5
1F2
330
1F
100
AcDbEntity
  8
0
100
AcDbLine
 10
-237.6057603663104
 20
2.208222140373844
 30
0.0
 11
-238.0292859027062
 21
1.887116699525503
 31
0.0
  0
LINE
  5
1F3
330
1F
100
AcDbEntity
  8
0
100
AcDbLine
 10
-238.0292859027062
 20
1.887116699525503
 30
0.0
 11
-238.356496025818
 21
1.468490494290252
 31
0.0
  0
LINE
  5
1F4
330
1F
100
AcDbEntity
  8
0
100
AcDbLine
 10
-238.356496025818
 20
1.468490494290252
 30
0.0
 11
-238.5650892286187
 21
0.9808616926920215
 31
0.0
  0
LINE
  5
1F5
330
1F
100
AcDbEntity
  8
0
100
AcDbLine
 10
-238.5650892286187
 20
0.9808616926920215
 30
0.0
 11
-238.6408426277288
 21
0.4574536850934449
 31
0.0
  0
LINE
  5
1F6
330
1F
100
AcDbEntity
  8
0
100
AcDbLine
 10
-238.6408426277288
 20
0.4574536850934449
 30
0.0
 11
-238.5785832655425
 21
-0.0660669697107013
 31
0.0
  0
LINE
  5
1F7
330
1F
100
AcDbEntity
  8
0
100
AcDbLine
 10
-238.5785832655425
 20
-0.0660669697107013
 30
0.0
 11
-238.3825434488845
 21
-0.5540204020776527
 31
0.0
  0
LINE
  5
1F8
330
1F
100
AcDbEntity
  8
0
100
AcDbLine
 10
-238.3825434488845
 20
-0.5540204020776527
 30
0.0
 11
-238.066075155657
 21
-0.973145705876245
 31
0.0
  0
LINE
  5
1F9
330
1F
100
AcDbEntity
  8
0
100
AcDbLine
 10
-238.066075155657
 20
-0.973145705876245
 30
0.0
 11
-237.6507422133642
 21
-1.294869673481436
 31
0.0
  0
LINE
  5
1FA
330
1F
100
AcDbEntity
  8
0
100
AcDbLine
 10
-237.6507422133642
 20
-1.294869673481436
 30
0.0
 11
-237.164851554663
 21
-1.497256829293082
 31
0.0
  0
LINE
  5
1FB
330
1F
100
AcDbEntity
  8
0
100
AcDbLine
 10
-237.164851554663
 20
-1.497256829293082
 30
0.0
 11
-236.6415234291188
 21
-1.566507115297493
 31
0.0
  0
LINE
  5
1FC
330
1F
100
AcDbEntity
  8
0
100
AcDbLine
 10
-236.6415234291188
 20
-1.566507115297493
 30
0.0
 11
-236.1164322751477
 21
-1.497898408166196
 31
0.0
  0
LINE
  5
1FD
330
1F
100
AcDbEntity
  8
0
100
AcDbLine
 10
-236.1164322751477
 20
-1.497898408166196
 30
0.0
 11
-235.6253727541742
 21
-1.296109082915475
 31
0.0
  0
LINE
  5
1FE
330
1F
100
AcDbEntity
  8
0
100
AcDbLine
 10
-235.6253727541742
 20
-1.296109082915475
 30
0.0
 11
-235.2018175715339
 21
-0.9748984375267332
 31
0.0
  0
LINE
  5
1FF
330
1F
100
AcDbEntity
  8
0
100
AcDbLine
 10
-235.2018175715339
 20
-0.9748984375267332
 30
0.0
 11
-234.8746342738334
 21
-0.5561669586406267
 31
0.0
  0
LINE
  5
200
330
1F
100
AcDbEntity
  8
0
100
AcDbLine
 10
-234.8746342738334
 20
-0.5561669586406267
 30
0.0
 11
-234.6661171802519
 21
-0.0684610222736385
 31
0.0
  0
LINE
  5
201
330
1F
100
AcDbEntity
  8
0
100
AcDbLine
 10
-234.6661171802519
 20
-0.0684610222736385
 30
0.0
 11
-234.5904687807635
 21
0.4549753130149597
 31
0.0
  0
LINE
  5
202
330
1F
100
AcDbEntity
  8
0
100
AcDbLine
 10
-234.5904687807635
 20
0.4549753130149597
 30
0.0
 11
-234.6528338984112
 21
0.978467898047192
 31
0.0
  0
LINE
  5
203
330
1F
100
AcDbEntity
  8
0
100
AcDbLine
 10
-234.6528338984112
 20
0.978467898047192
 30
0.0
 11
-234.8489518892808
 21
1.466344384456827
 31
0.0
  0
LINE
  5
204
330
1F
100
AcDbEntity
  8
0
100
AcDbLine
 10
-234.8489518892808
 20
1.466344384456827
 30
0.0
 11
-235.1654498287537
 21
1.885364483713451
 31
0.0
  0
LINE
  5
205
330
1F
100
AcDbEntity
  8
0
100
AcDbLine
 10
-235.1654498287537
 20
1.885364483713451
 30
0.0
 11
-235.5807559456356
 21
2.206983177668351
 31
0.0
  0
LINE
  5
206
330
1F
100
AcDbEntity
  8
0
100
AcDbLine
 10
-235.5807559456356
 20
2.206983177668351
 30
0.0
 11
-236.0665704951176
 21
2.409293198708136
 31
0.0
  0
LINE
  5
207
330
1F
100
AcDbEntity
  8
0
100
AcDbLine
 10
-236.0665704951176
 20
2.409293198708136
 30
0.0
 11
-236.5897936210397
 21
2.478515157024094
 31
0.0
  0
LINE
  5
208
330
1F
100
AcDbEntity
  8
0
100
AcDbLine
 10
-233.1562089235806
 20
-287.729611536447
 30
0.0
 11
-232.7494717461371
 21
-288.517963687382
 31
0.0
  0
LINE
  5
209
330
1F
100
AcDbEntity
  8
0
100
AcDbLine
 10
-232.7494717461371
 20
-288.517963687382
 30
0.0
 11
-232.1979011993529
 21
-289.2090488072827
 31
0.0
  0
LINE
  5
20A
330
1F
100
AcDbEntity
  8
0
100
AcDbLine
 10
-232.1979011993529
 20
-289.2090488072827
 30
0.0
 11
-231.5226541991002
 21
-289.7763296121823
 31
0.0
  0
LINE
  5
20B
330
1F
100
AcDbEntity
  8
0
100
AcDbLine
 10
-231.5226541991002
 20
-289.7763296121823
 30
0.0
 11
-230.7496416640683
 21
-290.1980187206779
 31
0.0
  0
LINE
  5
20C
330
1F
100
AcDbEntity
  8
0
100
AcDbLine
 10
-230.7496416640683
 20
-290.1980187206779
 30
0.0
 11
-229.908533769323
 21
-290.4579180436797
 31
0.0
  0
LINE
  5
20D
330
1F
100
AcDbEntity
  8
0
100
AcDbLine
 10
-229.908533769323
 20
-290.4579180436797
 30
0.0
 11
-229.0316196995309
 21
-290.5460432043725
 31
0.0
  0
LINE
  5
20E
330
1F
100
AcDbEntity
  8
0
100
AcDbLine
 10
-229.0316196995309
 20
-290.5460432043725
 30
0.0
 11
-228.1525659397598
 21
-290.4590085811724
 31
0.0
  0
LINE
  5
20F
330
1F
100
AcDbEntity
  8
0
100
AcDbLine
 10
-228.1525659397598
 20
-290.4590085811724
 30
0.0
 11
-227.3051211839218
 21
-290.2001578995809
 31
0.0
  0
LINE
  5
210
330
1F
100
AcDbEntity
  8
0
100
AcDbLine
 10
-227.3051211839218
 20
-290.2001578995809
 30
0.0
 11
-226.5218180713688
 21
-289.7794352562815
 31
0.0
  0
LINE
  5
211
330
1F
100
AcDbEntity
  8
0
100
AcDbLine
 10
-226.5218180713688
 20
-289.7794352562815
 30
0.0
 11
-225.832722086582
 21
-289.2130016288395
 31
0.0
  0
LINE
  5
212
330
1F
100
AcDbEntity
  8
0
100
AcDbLine
 10
-225.832722086582
 20
-289.2130016288395
 30
0.0
 11
-225.2642760700145
 21
-288.5226118844151
 31
0.0
  0
LINE
  5
213
330
1F
100
AcDbEntity
  8
0
100
AcDbLine
 10
-225.2642760700145
 20
-288.5226118844151
 30
0.0
 11
-224.8382849743534
 21
-287.7347766391659
 31
0.0
  0
LINE
  5
214
330
1F
100
AcDbEntity
  8
0
100
AcDbLine
 10
-224.7969435337189
 20
-284.2909469505657
 30
0.0
 11
-225.1758112897029
 21
-283.4887297909027
 31
0.0
  0
LINE
  5
215
330
1F
100
AcDbEntity
  8
0
100
AcDbLine
 10
-225.1758112897029
 20
-283.4887297909027
 30
0.0
 11
-225.7266985024439
 21
-282.7843847855746
 31
0.0
  0
LINE
  5
216
330
1F
100
AcDbEntity
  8
0
100
AcDbLine
 10
-225.7266985024439
 20
-282.7843847855746
 30
0.0
 11
-226.4050490402778
 21
-282.2055467610448
 31
0.0
  0
LINE
  5
217
330
1F
100
AcDbEntity
  8
0
100
AcDbLine
 10
-226.4050490402778
 20
-282.2055467610448
 30
0.0
 11
-227.1842429399782
 21
-281.7749102296511
 31
0.0
  0
LINE
  5
218
330
1F
100
AcDbEntity
  8
0
100
AcDbLine
 10
-227.1842429399782
 20
-281.7749102296511
 30
0.0
 11
-228.0337111052602
 21
-281.5093566046333
 31
0.0
  0
LINE
  5
219
330
1F
100
AcDbEntity
  8
0
100
AcDbLine
 10
-228.0337111052602
 20
-281.5093566046333
 30
0.0
 11
-228.9201330975167
 21
-281.4192947835666
 31
0.0
  0
LINE
  5
21A
330
1F
100
AcDbEntity
  8
0
100
AcDbLine
 10
-228.9201330975167
 20
-281.4192947835666
 30
0.0
 11
-229.8087418571461
 21
-281.508254728345
 31
0.0
  0
LINE
  5
21B
330
1F
100
AcDbEntity
  8
0
100
AcDbLine
 10
-229.8087418571461
 20
-281.508254728345
 30
0.0
 11
-230.6646846202417
 21
-281.7727496655562
 31
0.0
  0
LINE
  5
21C
330
1F
100
AcDbEntity
  8
0
100
AcDbLine
 10
-230.6646846202417
 20
-281.7727496655562
 30
0.0
 11
-231.4543871800284
 21
-282.202412200062
 31
0.0
  0
LINE
  5
21D
330
1F
100
AcDbEntity
  8
0
100
AcDbLine
 10
-231.4543871800284
 20
-282.202412200062
 30
0.0
 11
-232.1468685141265
 21
-282.7803991137448
 31
0.0
  0
LINE
  5
21E
330
1F
100
AcDbEntity
  8
0
100
AcDbLine
 10
-232.1468685141265
 20
-282.7803991137448
 30
0.0
 11
-232.7149546619917
 21
-283.4840492880249
 31
0.0
  0
LINE
  5
21F
330
1F
100
AcDbEntity
  8
0
100
AcDbLine
 10
-232.7149546619917
 20
-283.4840492880249
 30
0.0
 11
-233.1134150840647
 21
-284.2857836514677
 31
0.0
  0
LINE
  5
220
330
1F
100
AcDbEntity
  8
0
100
AcDbLine
 10
11.2526551607771
 20
-287.8813798017173
 30
0.0
 11
11.66916499011952
 21
-288.6697440858245
 31
0.0
  0
LINE
  5
221
330
1F
100
AcDbEntity
  8
0
100
AcDbLine
 10
11.66916499011952
 20
-288.6697440858245
 30
0.0
 11
12.22930393823716
 21
-289.360839842302
 31
0.0
  0
LINE
  5
222
330
1F
100
AcDbEntity
  8
0
100
AcDbLine
 10
12.22930393823716
 20
-289.360839842302
 30
0.0
 11
12.91158606762822
 21
-289.9281293785696
 31
0.0
  0
LINE
  5
223
330
1F
100
AcDbEntity
  8
0
100
AcDbLine
 10
12.91158606762822
 20
-289.9281293785696
 30
0.0
 11
13.68983026367959
 21
-290.3498249777052
 31
0.0
  0
LINE
  5
224
330
1F
100
AcDbEntity
  8
0
100
AcDbLine
 10
13.68983026367959
 20
-290.3498249777052
 30
0.0
 11
14.53416539076982
 21
-290.6097283011468
 31
0.0
  0
LINE
  5
225
330
1F
100
AcDbEntity
  8
0
100
AcDbLine
 10
14.53416539076982
 20
-290.6097283011468
 30
0.0
 11
15.41217828585564
 21
-290.6978548182975
 31
0.0
  0
LINE
  5
226
330
1F
100
AcDbEntity
  8
0
100
AcDbLine
 10
15.41217828585564
 20
-290.6978548182975
 30
0.0
 11
16.29016024883848
 21
-290.610818855426
 31
0.0
  0
LINE
  5
227
330
1F
100
AcDbEntity
  8
0
100
AcDbLine
 10
16.29016024883848
 20
-290.610818855426
 30
0.0
 11
17.1344037624614
 21
-290.3519641895347
 31
0.0
  0
LINE
  5
228
330
1F
100
AcDbEntity
  8
0
100
AcDbLine
 10
17.1344037624614
 20
-290.3519641895347
 30
0.0
 11
17.91249916742103
 21
-289.9312350704705
 31
0.0
  0
LINE
  5
229
330
1F
100
AcDbEntity
  8
0
100
AcDbLine
 10
17.91249916742103
 20
-289.9312350704705
 30
0.0
 11
18.59458102000126
 21
-289.3647927246986
 31
0.0
  0
LINE
  5
22A
330
1F
100
AcDbEntity
  8
0
100
AcDbLine
 10
18.59458102000126
 20
-289.3647927246986
 30
0.0
 11
19.15447586981954
 21
-288.6743923543971
 31
0.0
  0
LINE
  5
22B
330
1F
100
AcDbEntity
  8
0
100
AcDbLine
 10
19.15447586981954
 20
-288.6743923543971
 30
0.0
 11
19.57070712486733
 21
-287.8865449839286
 31
0.0
  0
LINE
  5
22C
330
1F
100
AcDbEntity
  8
0
100
AcDbLine
 10
19.56937179027189
 20
-284.4426622985762
 30
0.0
 11
19.18055977521843
 21
-283.6404327950017
 31
0.0
  0
LINE
  5
22D
330
1F
100
AcDbEntity
  8
0
100
AcDbLine
 10
19.18055977521843
 20
-283.6404327950017
 30
0.0
 11
18.62093984483148
 21
-282.9360769521596
 31
0.0
  0
LINE
  5
22E
330
1F
100
AcDbEntity
  8
0
100
AcDbLine
 10
18.62093984483148
 20
-282.9360769521596
 30
0.0
 11
17.93541093364477
 21
-282.3572300215383
 31
0.0
  0
LINE
  5
22F
330
1F
100
AcDbEntity
  8
0
100
AcDbLine
 10
17.93541093364477
 20
-282.3572300215383
 30
0.0
 11
17.15087444764221
 21
-281.9265868644734
 31
0.0
  0
LINE
  5
230
330
1F
100
AcDbEntity
  8
0
100
AcDbLine
 10
17.15087444764221
 20
-281.9265868644734
 30
0.0
 11
16.2981089182965
 21
-281.6610291537835
 31
0.0
  0
LINE
  5
231
330
1F
100
AcDbEntity
  8
0
100
AcDbLine
 10
16.2981089182965
 20
-281.6610291537835
 30
0.0
 11
15.41056403092913
 21
-281.5709659470842
 31
0.0
  0
LINE
  5
232
330
1F
100
AcDbEntity
  8
0
100
AcDbLine
 10
15.41056403092913
 20
-281.5709659470842
 30
0.0
 11
14.52305085687835
 21
-281.6599272605424
 31
0.0
  0
LINE
  5
233
330
1F
100
AcDbEntity
  8
0
100
AcDbLine
 10
14.52305085687835
 20
-281.6599272605424
 30
0.0
 11
13.67037921872109
 21
-281.9244262671371
 31
0.0
  0
LINE
  5
234
330
1F
100
AcDbEntity
  8
0
100
AcDbLine
 10
13.67037921872109
 20
-281.9244262671371
 30
0.0
 11
12.88599510514028
 21
-282.3540954123271
 31
0.0
  0
LINE
  5
235
330
1F
100
AcDbEntity
  8
0
100
AcDbLine
 10
12.88599510514028
 20
-282.3540954123271
 30
0.0
 11
12.20067104997574
 21
-282.9320912190045
 31
0.0
  0
LINE
  5
236
330
1F
100
AcDbEntity
  8
0
100
AcDbLine
 10
12.20067104997574
 20
-282.9320912190045
 30
0.0
 11
11.64130039866638
 21
-283.6357522201057
 31
0.0
  0
LINE
  5
237
330
1F
100
AcDbEntity
  8
0
100
AcDbLine
 10
11.64130039866638
 20
-283.6357522201057
 30
0.0
 11
11.25277226976488
 21
-284.4374989200278
 31
0.0
  0
LINE
  5
238
330
1F
100
AcDbEntity
  8
0
100
AcDbLine
 10
-162.7427769920914
 20
-274.578260526615
 30
0.0
 11
-162.5932193191205
 21
-275.7602474546456
 31
0.0
  0
LINE
  5
239
330
1F
100
AcDbEntity
  8
0
100
AcDbLine
 10
-162.5932193191205
 20
-275.7602474546456
 30
0.0
 11
-162.1473943553638
 21
-276.8607760850967
 31
0.0
  0
LINE
  5
23A
330
1F
100
AcDbEntity
  8
0
100
AcDbLine
 10
-162.1473943553638
 20
-276.8607760850967
 30
0.0
 11
-161.4354205142129
 21
-277.8053653766498
 31
0.0
  0
LINE
  5
23B
330
1F
100
AcDbEntity
  8
0
100
AcDbLine
 10
-161.4354205142129
 20
-277.8053653766498
 30
0.0
 11
-160.5054431545305
 21
-278.5300684297516
 31
0.0
  0
LINE
  5
23C
330
1F
100
AcDbEntity
  8
0
100
AcDbLine
 10
-160.5054431545305
 20
-278.5300684297516
 30
0.0
 11
-159.4203816821338
 21
-278.98581204728
 31
0.0
  0
LINE
  5
23D
330
1F
100
AcDbEntity
  8
0
100
AcDbLine
 10
-159.4203816821338
 20
-278.98581204728
 30
0.0
 11
-158.2536699001819
 21
-279.141730178299
 31
0.0
  0
LINE
  5
23E
330
1F
100
AcDbEntity
  8
0
100
AcDbLine
 10
-158.2536699001819
 20
-279.141730178299
 30
0.0
 11
-157.0842787079884
 21
-278.987262028611
 31
0.0
  0
LINE
  5
23F
330
1F
100
AcDbEntity
  8
0
100
AcDbLine
 10
-157.0842787079884
 20
-278.987262028611
 30
0.0
 11
-155.991360506279
 21
-278.5328701831627
 31
0.0
  0
LINE
  5
240
330
1F
100
AcDbEntity
  8
0
100
AcDbLine
 10
-155.991360506279
 20
-278.5328701831627
 30
0.0
 11
-155.0488812560182
 21
-277.80932916116
 31
0.0
  0
LINE
  5
241
330
1F
100
AcDbEntity
  8
0
100
AcDbLine
 10
-155.0488812560182
 20
-277.80932916116
 30
0.0
 11
-154.3206069915077
 21
-276.8656335221814
 31
0.0
  0
LINE
  5
242
330
1F
100
AcDbEntity
  8
0
100
AcDbLine
 10
-154.3206069915077
 20
-276.8656335221814
 30
0.0
 11
-153.8557866439307
 21
-275.7656697509955
 31
0.0
  0
LINE
  5
243
330
1F
100
AcDbEntity
  8
0
100
AcDbLine
 10
-153.8557866439307
 20
-275.7656697509955
 30
0.0
 11
-153.6858242350951
 21
-274.5838807744619
 31
0.0
  0
LINE
  5
244
330
1F
100
AcDbEntity
  8
0
100
AcDbLine
 10
-59.71985398130569
 20
-274.6421908988673
 30
0.0
 11
-59.56411750320059
 21
-275.8241854949683
 31
0.0
  0
LINE
  5
245
330
1F
100
AcDbEntity
  8
0
100
AcDbLine
 10
-59.56411750320059
 20
-275.8241854949683
 30
0.0
 11
-59.11253856080776
 21
-276.924721265447
 31
0.0
  0
LINE
  5
246
330
1F
100
AcDbEntity
  8
0
100
AcDbLine
 10
-59.11253856080776
 20
-276.924721265447
 30
0.0
 11
-58.39562498218828
 21
-277.8693166856399
 31
0.0
  0
LINE
  5
247
330
1F
100
AcDbEntity
  8
0
100
AcDbLine
 10
-58.39562498218828
 20
-277.8693166856399
 30
0.0
 11
-57.46185653682163
 21
-278.5940244409248
 31
0.0
  0
LINE
  5
248
330
1F
100
AcDbEntity
  8
0
100
AcDbLine
 10
-57.46185653682163
 20
-278.5940244409248
 30
0.0
 11
-56.37440934339626
 21
-279.0497710156011
 31
0.0
  0
LINE
  5
249
330
1F
100
AcDbEntity
  8
0
100
AcDbLine
 10
-56.37440934339626
 20
-279.0497710156011
 30
0.0
 11
-55.20687878223956
 21
-279.2056901583297
 31
0.0
  0
LINE
  5
24A
330
1F
100
AcDbEntity
  8
0
100
AcDbLine
 10
-55.20687878223956
 20
-279.2056901583297
 30
0.0
 11
-54.03829121098607
 21
-279.0512210063407
 31
0.0
  0
LINE
  5
24B
330
1F
100
AcDbEntity
  8
0
100
AcDbLine
 10
-54.03829121098607
 20
-279.0512210063407
 30
0.0
 11
-52.94774459873121
 21
-278.5968262125148
 31
0.0
  0
LINE
  5
24C
330
1F
100
AcDbEntity
  8
0
100
AcDbLine
 10
-52.94774459873121
 20
-278.5968262125148
 30
0.0
 11
-52.00904428615317
 21
-277.8732804958684
 31
0.0
  0
LINE
  5
24D
330
1F
100
AcDbEntity
  8
0
100
AcDbLine
 10
-52.00904428615317
 20
-277.8732804958684
 30
0.0
 11
-51.2857004167685
 21
-276.9295787340467
 31
0.0
  0
LINE
  5
24E
330
1F
100
AcDbEntity
  8
0
100
AcDbLine
 10
-51.2857004167685
 20
-276.9295787340467
 30
0.0
 11
-50.82662814272672
 21
-275.8296078264957
 31
0.0
  0
LINE
  5
24F
330
1F
100
AcDbEntity
  8
0
100
AcDbLine
 10
-50.82662814272672
 20
-275.8296078264957
 30
0.0
 11
-50.66303748316437
 21
-274.6478110621596
 31
0.0
  0
LINE
  5
250
330
1F
100
AcDbEntity
  8
0
100
AcDbLine
 10
20.5405492100775
 20
-230.3733096130757
 30
0.0
 11
20.61015166300505
 21
-230.9050943924571
 31
0.0
  0
LINE
  5
251
330
1F
100
AcDbEntity
  8
0
100
AcDbLine
 10
20.61015166300505
 20
-230.9050943924571
 30
0.0
 11
20.81355629675944
 21
-231.4007325715278
 31
0.0
  0
LINE
  5
252
330
1F
100
AcDbEntity
  8
0
100
AcDbLine
 10
20.81355629675944
 20
-231.4007325715278
 30
0.0
 11
21.13691254639278
 21
-231.8264475722223
 31
0.0
  0
LINE
  5
253
330
1F
100
AcDbEntity
  8
0
100
AcDbLine
 10
21.13691254639278
 20
-231.8264475722223
 30
0.0
 11
21.55819239999344
 21
-232.1532239323676
 31
0.0
  0
LINE
  5
254
330
1F
100
AcDbEntity
  8
0
100
AcDbLine
 10
21.55819239999344
 20
-232.1532239323676
 30
0.0
 11
22.0486904453714
 21
-232.3587870538038
 31
0.0
  0
LINE
  5
255
330
1F
100
AcDbEntity
  8
0
100
AcDbLine
 10
22.0486904453714
 20
-232.3587870538038
 30
0.0
 11
22.57498038369877
 21
-232.4291236853672
 31
0.0
  0
LINE
  5
256
330
1F
100
AcDbEntity
  8
0
100
AcDbLine
 10
22.57498038369877
 20
-232.4291236853672
 30
0.0
 11
23.10119450547669
 21
-232.3594387772241
 31
0.0
  0
LINE
  5
257
330
1F
100
AcDbEntity
  8
0
100
AcDbLine
 10
23.10119450547669
 20
-232.3594387772241
 30
0.0
 11
23.59147026635405
 21
-232.1544829498159
 31
0.0
  0
LINE
  5
258
330
1F
100
AcDbEntity
  8
0
100
AcDbLine
 10
23.59147026635405
 20
-232.1544829498159
 30
0.0
 11
24.01239651113603
 21
-231.8282280590111
 31
0.0
  0
LINE
  5
259
330
1F
100
AcDbEntity
  8
0
100
AcDbLine
 10
24.01239651113603
 20
-231.8282280590111
 30
0.0
 11
24.33529191825926
 21
-231.4029131672666
 31
0.0
  0
LINE
  5
25A
330
1F
100
AcDbEntity
  8
0
100
AcDbLine
 10
24.33529191825926
 20
-231.4029131672666
 30
0.0
 11
24.53815987246982
 21
-230.9075264836398
 31
0.0
  0
LINE
  5
25B
330
1F
100
AcDbEntity
  8
0
100
AcDbLine
 10
24.53815987246982
 20
-230.9075264836398
 30
0.0
 11
24.60718637276665
 21
-230.3758274705833
 31
0.0
  0
LINE
  5
25C
330
1F
100
AcDbEntity
  8
0
100
AcDbLine
 10
24.5702614407739
 20
-173.1264332299426
 30
0.0
 11
24.49845559403934
 21
-172.59987098521
 31
0.0
  0
LINE
  5
25D
330
1F
100
AcDbEntity
  8
0
100
AcDbLine
 10
24.49845559403934
 20
-172.59987098521
 30
0.0
 11
24.29431290058661
 21
-172.1096426412513
 31
0.0
  0
LINE
  5
25E
330
1F
100
AcDbEntity
  8
0
100
AcDbLine
 10
24.29431290058661
 20
-172.1096426412513
 30
0.0
 11
23.97165662346153
 21
-171.6889174254746
 31
0.0
  0
LINE
  5
25F
330
1F
100
AcDbEntity
  8
0
100
AcDbLine
 10
23.97165662346153
 20
-171.6889174254746
 30
0.0
 11
23.55232577113452
 21
-171.3661580515453
 31
0.0
  0
LINE
  5
260
330
1F
100
AcDbEntity
  8
0
100
AcDbLine
 10
23.55232577113452
 20
-171.3661580515453
 30
0.0
 11
23.06469638180079
 21
-171.1631972635806
 31
0.0
  0
LINE
  5
261
330
1F
100
AcDbEntity
  8
0
100
AcDbLine
 10
23.06469638180079
 20
-171.1631972635806
 30
0.0
 11
22.5417618874106
 21
-171.0937630670746
 31
0.0
  0
LINE
  5
262
330
1F
100
AcDbEntity
  8
0
100
AcDbLine
 10
22.5417618874106
 20
-171.0937630670746
 30
0.0
 11
22.01890227007079
 21
-171.1625517099912
 31
0.0
  0
LINE
  5
263
330
1F
100
AcDbEntity
  8
0
100
AcDbLine
 10
22.01890227007079
 20
-171.1625517099912
 30
0.0
 11
21.53149244409146
 21
-171.3649106074476
 31
0.0
  0
LINE
  5
264
330
1F
100
AcDbEntity
  8
0
100
AcDbLine
 10
21.53149244409146
 20
-171.3649106074476
 30
0.0
 11
21.11251098110426
 21
-171.6871524689217
 31
0.0
  0
LINE
  5
265
330
1F
100
AcDbEntity
  8
0
100
AcDbLine
 10
21.11251098110426
 20
-171.6871524689217
 30
0.0
 11
20.79031027242863
 21
-172.1074795667467
 31
0.0
  0
LINE
  5
266
330
1F
100
AcDbEntity
  8
0
100
AcDbLine
 10
20.79031027242863
 20
-172.1074795667467
 30
0.0
 11
20.58669849381219
 21
-172.5974561372625
 31
0.0
  0
LINE
  5
267
330
1F
100
AcDbEntity
  8
0
100
AcDbLine
 10
20.58669849381219
 20
-172.5974561372625
 30
0.0
 11
20.51546297675912
 21
-173.1239300109467
 31
0.0
  0
LINE
  5
268
330
1F
100
AcDbEntity
  8
0
100
AcDbLine
 10
-176.2121619346813
 20
-182.3102149883211
 30
0.0
 11
-176.6784297365282
 21
-182.3717293226142
 31
0.0
  0
LINE
  5
269
330
1F
100
AcDbEntity
  8
0
100
AcDbLine
 10
-176.6784297365282
 20
-182.3717293226142
 30
0.0
 11
-177.1141158721935
 21
-182.5526577007566
 31
0.0
  0
LINE
  5
26A
330
1F
100
AcDbEntity
  8
0
100
AcDbLine
 10
-177.1141158721935
 20
-182.5526577007566
 30
0.0
 11
-177.4895351973277
 21
-182.8406762773668
 31
0.0
  0
LINE
  5
26B
330
1F
100
AcDbEntity
  8
0
100
AcDbLine
 10
-177.4895351973277
 20
-182.8406762773668
 30
0.0
 11
-177.7791058181819
 21
-183.2161654368051
 31
0.0
  0
LINE
  5
26C
330
1F
100
AcDbEntity
  8
0
100
AcDbLine
 10
-177.7791058181819
 20
-183.2161654368051
 30
0.0
 11
-177.9630918354905
 21
-183.653544594091
 31
0.0
  0
LINE
  5
26D
330
1F
100
AcDbEntity
  8
0
100
AcDbLine
 10
-177.9630918354905
 20
-183.653544594091
 30
0.0
 11
-178.0289488863525
 21
-184.1230132240883
 31
0.0
  0
LINE
  5
26E
330
1F
100
AcDbEntity
  8
0
100
AcDbLine
 10
-178.0289488863525
 20
-184.1230132240883
 30
0.0
 11
-177.9721806344032
 21
-184.5925800722057
 31
0.0
  0
LINE
  5
26F
330
1F
100
AcDbEntity
  8
0
100
AcDbLine
 10
-177.9721806344032
 20
-184.5925800722057
 30
0.0
 11
-177.7966474080609
 21
-185.0302427004024
 31
0.0
  0
LINE
  5
270
330
1F
100
AcDbEntity
  8
0
100
AcDbLine
 10
-177.7966474080609
 20
-185.0302427004024
 30
0.0
 11
-177.514305358831
 21
-185.4061689984179
 31
0.0
  0
LINE
  5
271
330
1F
100
AcDbEntity
  8
0
100
AcDbLine
 10
-177.514305358831
 20
-185.4061689984179
 30
0.0
 11
-177.144393317078
 21
-185.6947318339049
 31
0.0
  0
LINE
  5
272
330
1F
100
AcDbEntity
  8
0
100
AcDbLine
 10
-177.144393317078
 20
-185.6947318339049
 30
0.0
 11
-176.712122317935
 21
-185.8762577437756
 31
0.0
  0
LINE
  5
273
330
1F
100
AcDbEntity
  8
0
100
AcDbLine
 10
-176.712122317935
 20
-185.8762577437756
 30
0.0
 11
-176.2469569374864
 21
-185.9383698947957
 31
0.0
  0
LINE
  5
274
330
1F
100
AcDbEntity
  8
0
100
AcDbLine
 10
-176.2469569374864
 20
-185.9383698947957
 30
0.0
 11
-175.7806057168699
 21
-185.8768331906348
 31
0.0
  0
LINE
  5
275
330
1F
100
AcDbEntity
  8
0
100
AcDbLine
 10
-175.7806057168699
 20
-185.8768331906348
 30
0.0
 11
-175.3448580560734
 21
-185.6958434913314
 31
0.0
  0
LINE
  5
276
330
1F
100
AcDbEntity
  8
0
100
AcDbLine
 10
-175.3448580560734
 20
-185.6958434913314
 30
0.0
 11
-174.969415585058
 21
-185.407741073222
 31
0.0
  0
LINE
  5
277
330
1F
100
AcDbEntity
  8
0
100
AcDbLine
 10
-174.969415585058
 20
-185.407741073222
 30
0.0
 11
-174.6798663994911
 21
-185.0321680172107
 31
0.0
  0
LINE
  5
278
330
1F
100
AcDbEntity
  8
0
100
AcDbLine
 10
-174.6798663994911
 20
-185.0321680172107
 30
0.0
 11
-174.4959406550703
 21
-184.5947273882939
 31
0.0
  0
LINE
  5
279
330
1F
100
AcDbEntity
  8
0
100
AcDbLine
 10
-174.4959406550703
 20
-184.5947273882939
 30
0.0
 11
-174.4301665646251
 21
-184.1252361828842
 31
0.0
  0
LINE
  5
27A
330
1F
100
AcDbEntity
  8
0
100
AcDbLine
 10
-174.4301665646251
 20
-184.1252361828842
 30
0.0
 11
-174.487018235344
 21
-183.655691704634
 31
0.0
  0
LINE
  5
27B
330
1F
100
AcDbEntity
  8
0
100
AcDbLine
 10
-174.487018235344
 20
-183.655691704634
 30
0.0
 11
-174.6626129868169
 21
-183.2180903975978
 31
0.0
  0
LINE
  5
27C
330
1F
100
AcDbEntity
  8
0
100
AcDbLine
 10
-174.6626129868169
 20
-183.2180903975978
 30
0.0
 11
-174.9449781819292
 21
-182.8422479410805
 31
0.0
  0
LINE
  5
27D
330
1F
100
AcDbEntity
  8
0
100
AcDbLine
 10
-174.9449781819292
 20
-182.8422479410805
 30
0.0
 11
-175.3148687883951
 21
-182.5537690021682
 31
0.0
  0
LINE
  5
27E
330
1F
100
AcDbEntity
  8
0
100
AcDbLine
 10
-175.3148687883951
 20
-182.5537690021682
 30
0.0
 11
-175.7470795146506
 21
-182.3723045639281
 31
0.0
  0
LINE
  5
27F
330
1F
100
AcDbEntity
  8
0
100
AcDbLine
 10
-175.7470795146506
 20
-182.3723045639281
 30
0.0
 11
-176.2121619346813
 21
-182.3102149883211
 31
0.0
  0
LINE
  5
280
330
1F
100
AcDbEntity
  8
0
100
AcDbLine
 10
-37.29843144823114
 20
-182.3960137171212
 30
0.0
 11
-37.76426569352496
 21
-182.457528589497
 31
0.0
  0
LINE
  5
281
330
1F
100
AcDbEntity
  8
0
100
AcDbLine
 10
-37.76426569352496
 20
-182.457528589497
 30
0.0
 11
-38.19867254315911
 21
-182.6384585502786
 31
0.0
  0
LINE
  5
282
330
1F
100
AcDbEntity
  8
0
100
AcDbLine
 10
-38.19867254315911
 20
-182.6384585502786
 30
0.0
 11
-38.57205399069387
 21
-182.9264796463131
 31
0.0
  0
LINE
  5
283
330
1F
100
AcDbEntity
  8
0
100
AcDbLine
 10
-38.57205399069387
 20
-182.9264796463131
 30
0.0
 11
-38.85896696109236
 21
-183.3019720903733
 31
0.0
  0
LINE
  5
284
330
1F
100
AcDbEntity
  8
0
100
AcDbLine
 10
-38.85896696109236
 20
-183.3019720903733
 30
0.0
 11
-39.0398566102109
 21
-183.7393550737494
 31
0.0
  0
LINE
  5
285
330
1F
100
AcDbEntity
  8
0
100
AcDbLine
 10
-39.0398566102109
 20
-183.7393550737494
 30
0.0
 11
-39.10238954398031
 21
-184.2088278106407
 31
0.0
  0
LINE
  5
286
330
1F
100
AcDbEntity
  8
0
100
AcDbLine
 10
-39.10238954398031
 20
-184.2088278106407
 30
0.0
 11
-39.04229594306869
 21
-184.6783987666118
 31
0.0
  0
LINE
  5
287
330
1F
100
AcDbEntity
  8
0
100
AcDbLine
 10
-39.04229594306869
 20
-184.6783987666118
 30
0.0
 11
-38.8636627686741
 21
-185.1160652236456
 31
0.0
  0
LINE
  5
288
330
1F
100
AcDbEntity
  8
0
100
AcDbLine
 10
-38.8636627686741
 20
-185.1160652236456
 30
0.0
 11
-38.57865747195977
 21
-185.4919948104749
 31
0.0
  0
LINE
  5
289
330
1F
100
AcDbEntity
  8
0
100
AcDbLine
 10
-38.57865747195977
 20
-185.4919948104749
 30
0.0
 11
-38.20670043850037
 21
-185.7805601705132
 31
0.0
  0
LINE
  5
28A
330
1F
100
AcDbEntity
  8
0
100
AcDbLine
 10
-38.20670043850037
 20
-185.7805601705132
 30
0.0
 11
-37.77314212561291
 21
-185.9620876685196
 31
0.0
  0
LINE
  5
28B
330
1F
100
AcDbEntity
  8
0
100
AcDbLine
 10
-37.77314212561291
 20
-185.9620876685196
 30
0.0
 11
-37.30753488123442
 21
-186.0242003629508
 31
0.0
  0
LINE
  5
28C
330
1F
100
AcDbEntity
  8
0
100
AcDbLine
 10
-37.30753488123442
 20
-186.0242003629508
 30
0.0
 11
-36.841617374847
 21
-185.9626631204131
 31
0.0
  0
LINE
  5
28D
330
1F
100
AcDbEntity
  8
0
100
AcDbLine
 10
-36.841617374847
 20
-185.9626631204131
 30
0.0
 11
-36.40714943377402
 21
-185.7816718376654
 31
0.0
  0
LINE
  5
28E
330
1F
100
AcDbEntity
  8
0
100
AcDbLine
 10
-36.40714943377402
 20
-185.7816718376654
 30
0.0
 11
-36.03374543385644
 21
-185.4935668990322
 31
0.0
  0
LINE
  5
28F
330
1F
100
AcDbEntity
  8
0
100
AcDbLine
 10
-36.03374543385644
 20
-185.4935668990322
 30
0.0
 11
-35.746854493024
 21
-185.1179905572974
 31
0.0
  0
LINE
  5
290
330
1F
100
AcDbEntity
  8
0
100
AcDbLine
 10
-35.746854493024
 20
-185.1179905572974
 30
0.0
 11
-35.56602555261598
 21
-184.6805461014849
 31
0.0
  0
LINE
  5
291
330
1F
100
AcDbEntity
  8
0
100
AcDbLine
 10
-35.56602555261598
 20
-184.6805461014849
 30
0.0
 11
-35.50357573985155
 21
-184.2110507888836
 31
0.0
  0
LINE
  5
292
330
1F
100
AcDbEntity
  8
0
100
AcDbLine
 10
-35.50357573985155
 20
-184.2110507888836
 30
0.0
 11
-35.56375260185544
 21
-183.7415022030742
 31
0.0
  0
LINE
  5
293
330
1F
100
AcDbEntity
  8
0
100
AcDbLine
 10
-35.56375260185544
 20
-183.7415022030742
 30
0.0
 11
-35.74244686768886
 21
-183.3038970680052
 31
0.0
  0
LINE
  5
294
330
1F
100
AcDbEntity
  8
0
100
AcDbLine
 10
-35.74244686768886
 20
-183.3038970680052
 30
0.0
 11
-36.02747471678665
 21
-182.9280513237751
 31
0.0
  0
LINE
  5
295
330
1F
100
AcDbEntity
  8
0
100
AcDbLine
 10
-36.02747471678665
 20
-182.9280513237751
 30
0.0
 11
-36.39940972068025
 21
-182.6395698614119
 31
0.0
  0
LINE
  5
296
330
1F
100
AcDbEntity
  8
0
100
AcDbLine
 10
-36.39940972068025
 20
-182.6395698614119
 30
0.0
 11
-36.83290732485779
 21
-182.4581038358431
 31
0.0
  0
LINE
  5
297
330
1F
100
AcDbEntity
  8
0
100
AcDbLine
 10
-36.83290732485779
 20
-182.4581038358431
 30
0.0
 11
-37.29843144823114
 21
-182.3960137171212
 31
0.0
  0
LINE
  5
298
330
1F
100
AcDbEntity
  8
0
100
AcDbLine
 10
-127.2284577353388
 20
-163.4408570308429
 30
0.0
 11
-127.7242341561386
 21
-163.5062230328453
 31
0.0
  0
LINE
  5
299
330
1F
100
AcDbEntity
  8
0
100
AcDbLine
 10
-127.7242341561386
 20
-163.5062230328453
 30
0.0
 11
-128.1871661936397
 21
-163.6984802386677
 31
0.0
  0
LINE
  5
29A
330
1F
100
AcDbEntity
  8
0
100
AcDbLine
 10
-128.1871661936397
 20
-163.6984802386677
 30
0.0
 11
-128.5857127301322
 21
-164.0045335597054
 31
0.0
  0
LINE
  5
29B
330
1F
100
AcDbEntity
  8
0
100
AcDbLine
 10
-128.5857127301322
 20
-164.0045335597054
 30
0.0
 11
-128.8927160707823
 21
-164.4035354329928
 31
0.0
  0
LINE
  5
29C
330
1F
100
AcDbEntity
  8
0
100
AcDbLine
 10
-128.8927160707823
 20
-164.4035354329928
 30
0.0
 11
-129.0872520006455
 21
-164.868304012552
 31
0.0
  0
LINE
  5
29D
330
1F
100
AcDbEntity
  8
0
100
AcDbLine
 10
-129.0872520006455
 20
-164.868304012552
 30
0.0
 11
-129.156056389833
 21
-165.367173029402
 31
0.0
  0
LINE
  5
29E
330
1F
100
AcDbEntity
  8
0
100
AcDbLine
 10
-129.156056389833
 20
-165.367173029402
 30
0.0
 11
-129.0944309510006
 21
-165.8661479352262
 31
0.0
  0
LINE
  5
29F
330
1F
100
AcDbEntity
  8
0
100
AcDbLine
 10
-129.0944309510006
 20
-165.8661479352262
 30
0.0
 11
-128.9065659335112
 21
-166.3312218906476
 31
0.0
  0
LINE
  5
2A0
330
1F
100
AcDbEntity
  8
0
100
AcDbLine
 10
-128.9065659335112
 20
-166.3312218906476
 30
0.0
 11
-128.605257089828
 21
-166.7306939509283
 31
0.0
  0
LINE
  5
2A1
330
1F
100
AcDbEntity
  8
0
100
AcDbLine
 10
-128.605257089828
 20
-166.7306939509283
 30
0.0
 11
-128.2110355257004
 21
-167.0373312878197
 31
0.0
  0
LINE
  5
2A2
330
1F
100
AcDbEntity
  8
0
100
AcDbLine
 10
-128.2110355257004
 20
-167.0373312878197
 30
0.0
 11
-127.7507692348396
 21
-167.2302275988379
 31
0.0
  0
LINE
  5
2A3
330
1F
100
AcDbEntity
  8
0
100
AcDbLine
 10
-127.7507692348396
 20
-167.2302275988379
 30
0.0
 11
-127.2558314344827
 21
-167.2962303765076
 31
0.0
  0
LINE
  5
2A4
330
1F
100
AcDbEntity
  8
0
100
AcDbLine
 10
-127.2558314344827
 20
-167.2962303765076
 30
0.0
 11
-126.7599607021315
 21
-167.2308390908386
 31
0.0
  0
LINE
  5
2A5
330
1F
100
AcDbEntity
  8
0
100
AcDbLine
 10
-126.7599607021315
 20
-167.2308390908386
 30
0.0
 11
-126.2969592321956
 21
-167.0385125764383
 31
0.0
  0
LINE
  5
2A6
330
1F
100
AcDbEntity
  8
0
100
AcDbLine
 10
-126.2969592321956
 20
-167.0385125764383
 30
0.0
 11
-125.8983867467504
 21
-166.7323644930878
 31
0.0
  0
LINE
  5
2A7
330
1F
100
AcDbEntity
  8
0
100
AcDbLine
 10
-125.8983867467504
 20
-166.7323644930878
 30
0.0
 11
-125.59140789363
 21
-166.3332677952382
 31
0.0
  0
LINE
  5
2A8
330
1F
100
AcDbEntity
  8
0
100
AcDbLine
 10
-125.59140789363
 20
-166.3332677952382
 30
0.0
 11
-125.3969403263656
 21
-165.8684297370326
 31
0.0
  0
LINE
  5
2A9
330
1F
100
AcDbEntity
  8
0
100
AcDbLine
 10
-125.3969403263656
 20
-165.8684297370326
 30
0.0
 11
-125.328229857141
 21
-165.3695352041989
 31
0.0
  0
LINE
  5
2AA
330
1F
100
AcDbEntity
  8
0
100
AcDbLine
 10
-125.328229857141
 20
-165.3695352041989
 30
0.0
 11
-125.389949607524
 21
-164.8705855820402
 31
0.0
  0
LINE
  5
2AB
330
1F
100
AcDbEntity
  8
0
100
AcDbLine
 10
-125.389949607524
 20
-164.8705855820402
 30
0.0
 11
-125.5778840574484
 21
-164.4055809351958
 31
0.0
  0
LINE
  5
2AC
330
1F
100
AcDbEntity
  8
0
100
AcDbLine
 10
-125.5778840574484
 20
-164.4055809351958
 30
0.0
 11
-125.8792188500845
 21
-164.0062036372282
 31
0.0
  0
LINE
  5
2AD
330
1F
100
AcDbEntity
  8
0
100
AcDbLine
 10
-125.8792188500845
 20
-164.0062036372282
 30
0.0
 11
-126.2734159266834
 21
-163.6996611248985
 31
0.0
  0
LINE
  5
2AE
330
1F
100
AcDbEntity
  8
0
100
AcDbLine
 10
-126.2734159266834
 20
-163.6996611248985
 30
0.0
 11
-126.7336138549464
 21
-163.5068342925277
 31
0.0
  0
LINE
  5
2AF
330
1F
100
AcDbEntity
  8
0
100
AcDbLine
 10
-126.7336138549464
 20
-163.5068342925277
 30
0.0
 11
-127.2284577353388
 21
-163.4408570308429
 31
0.0
  0
LINE
  5
2B0
330
1F
100
AcDbEntity
  8
0
100
AcDbLine
 10
-126.8992048810621
 20
-117.0681446066557
 30
0.0
 11
-127.3938071251331
 21
-117.1332016436552
 31
0.0
  0
LINE
  5
2B1
330
1F
100
AcDbEntity
  8
0
100
AcDbLine
 10
-127.3938071251331
 20
-117.1332016436552
 30
0.0
 11
-127.8556405517096
 21
-117.3245501027972
 31
0.0
  0
LINE
  5
2B2
330
1F
100
AcDbEntity
  8
0
100
AcDbLine
 10
-127.8556405517096
 20
-117.3245501027972
 30
0.0
 11
-128.2532388786999
 21
-117.6291567760396
 31
0.0
  0
LINE
  5
2B3
330
1F
100
AcDbEntity
  8
0
100
AcDbLine
 10
-128.2532388786999
 20
-117.6291567760396
 30
0.0
 11
-128.5595090177639
 21
-118.0262726200442
 31
0.0
  0
LINE
  5
2B4
330
1F
100
AcDbEntity
  8
0
100
AcDbLine
 10
-128.5595090177639
 20
-118.0262726200442
 30
0.0
 11
-128.7535767318261
 21
-118.4888442515264
 31
0.0
  0
LINE
  5
2B5
330
1F
100
AcDbEntity
  8
0
100
AcDbLine
 10
-128.7535767318261
 20
-118.4888442515264
 30
0.0
 11
-128.822209831289
 21
-118.9853550707212
 31
0.0
  0
LINE
  5
2B6
330
1F
100
AcDbEntity
  8
0
100
AcDbLine
 10
-128.822209831289
 20
-118.9853550707212
 30
0.0
 11
-128.7607217462224
 21
-119.4819712185159
 31
0.0
  0
LINE
  5
2B7
330
1F
100
AcDbEntity
  8
0
100
AcDbLine
 10
-128.7607217462224
 20
-119.4819712185159
 30
0.0
 11
-128.5732934101445
 21
-119.9448466188679
 31
0.0
  0
LINE
  5
2B8
330
1F
100
AcDbEntity
  8
0
100
AcDbLine
 10
-128.5732934101445
 20
-119.9448466188679
 30
0.0
 11
-128.2726908493179
 21
-120.3424302039654
 31
0.0
  0
LINE
  5
2B9
330
1F
100
AcDbEntity
  8
0
100
AcDbLine
 10
-128.2726908493179
 20
-120.3424302039654
 30
0.0
 11
-127.8793970499065
 21
-120.6476179090779
 31
0.0
  0
LINE
  5
2BA
330
1F
100
AcDbEntity
  8
0
100
AcDbLine
 10
-127.8793970499065
 20
-120.6476179090779
 30
0.0
 11
-127.4202167685901
 21
-120.8396022888342
 31
0.0
  0
LINE
  5
2BB
330
1F
100
AcDbEntity
  8
0
100
AcDbLine
 10
-127.4202167685901
 20
-120.8396022888342
 30
0.0
 11
-126.9264491806749
 21
-120.905293031547
 31
0.0
  0
LINE
  5
2BC
330
1F
100
AcDbEntity
  8
0
100
AcDbLine
 10
-126.9264491806749
 20
-120.905293031547
 30
0.0
 11
-126.4317530713001
 21
-120.8402108899494
 31
0.0
  0
LINE
  5
2BD
330
1F
100
AcDbEntity
  8
0
100
AcDbLine
 10
-126.4317530713001
 20
-120.8402108899494
 30
0.0
 11
-125.9698505416656
 21
-120.648793613096
 31
0.0
  0
LINE
  5
2BE
330
1F
100
AcDbEntity
  8
0
100
AcDbLine
 10
-125.9698505416656
 20
-120.648793613096
 30
0.0
 11
-125.5722263899714
 21
-120.3440928486782
 31
0.0
  0
LINE
  5
2BF
330
1F
100
AcDbEntity
  8
0
100
AcDbLine
 10
-125.5722263899714
 20
-120.3440928486782
 30
0.0
 11
-125.2659806242671
 21
-119.9468828516917
 31
0.0
  0
LINE
  5
2C0
330
1F
100
AcDbEntity
  8
0
100
AcDbLine
 10
-125.2659806242671
 20
-119.9468828516917
 30
0.0
 11
-125.0719809508046
 21
-119.4842422336338
 31
0.0
  0
LINE
  5
2C1
330
1F
100
AcDbEntity
  8
0
100
AcDbLine
 10
-125.0719809508046
 20
-119.4842422336338
 30
0.0
 11
-125.0034413277591
 21
-118.9877060791675
 31
0.0
  0
LINE
  5
2C2
330
1F
100
AcDbEntity
  8
0
100
AcDbLine
 10
-125.0034413277591
 20
-118.9877060791675
 30
0.0
 11
-125.0650232781283
 21
-118.4911150359705
 31
0.0
  0
LINE
  5
2C3
330
1F
100
AcDbEntity
  8
0
100
AcDbLine
 10
-125.0650232781283
 20
-118.4911150359705
 30
0.0
 11
-125.2525207172646
 21
-118.0283084533297
 31
0.0
  0
LINE
  5
2C4
330
1F
100
AcDbEntity
  8
0
100
AcDbLine
 10
-125.2525207172646
 20
-118.0283084533297
 30
0.0
 11
-125.5531491027956
 21
-117.630818959406
 31
0.0
  0
LINE
  5
2C5
330
1F
100
AcDbEntity
  8
0
100
AcDbLine
 10
-125.5531491027956
 20
-117.630818959406
 30
0.0
 11
-125.946418528848
 21
-117.3257254072771
 31
0.0
  0
LINE
  5
2C6
330
1F
100
AcDbEntity
  8
0
100
AcDbLine
 10
-125.946418528848
 20
-117.3257254072771
 30
0.0
 11
-126.4055307695652
 21
-117.1338100140958
 31
0.0
  0
LINE
  5
2C7
330
1F
100
AcDbEntity
  8
0
100
AcDbLine
 10
-126.4055307695652
 20
-117.1338100140958
 30
0.0
 11
-126.8992048810621
 21
-117.0681446066557
 31
0.0
  0
LINE
  5
2C8
330
1F
100
AcDbEntity
  8
0
100
AcDbLine
 10
-174.8850021348699
 20
-43.27522567742723
 30
0.0
 11
-175.3463889577667
 21
-43.3356651972488
 31
0.0
  0
LINE
  5
2C9
330
1F
100
AcDbEntity
  8
0
100
AcDbLine
 10
-175.3463889577667
 20
-43.3356651972488
 30
0.0
 11
-175.777505898763
 21
-43.51343226583724
 31
0.0
  0
LINE
  5
2CA
330
1F
100
AcDbEntity
  8
0
100
AcDbLine
 10
-175.777505898763
 20
-43.51343226583724
 30
0.0
 11
-176.1489790682717
 21
-43.79641830587958
 31
0.0
  0
LINE
  5
2CB
330
1F
100
AcDbEntity
  8
0
100
AcDbLine
 10
-176.1489790682717
 20
-43.79641830587958
 30
0.0
 11
-176.4354954478356
 21
-44.16534642839507
 31
0.0
  0
LINE
  5
2CC
330
1F
100
AcDbEntity
  8
0
100
AcDbLine
 10
-176.4354954478356
 20
-44.16534642839507
 30
0.0
 11
-176.6175273236541
 21
-44.59508293965096
 31
0.0
  0
LINE
  5
2CD
330
1F
100
AcDbEntity
  8
0
100
AcDbLine
 10
-176.6175273236541
 20
-44.59508293965096
 30
0.0
 11
-176.6826636291943
 21
-45.05634797776064
 31
0.0
  0
LINE
  5
2CE
330
1F
100
AcDbEntity
  8
0
100
AcDbLine
 10
-176.6826636291943
 20
-45.05634797776064
 30
0.0
 11
-176.6264573180083
 21
-45.5177092867199
 31
0.0
  0
LINE
  5
2CF
330
1F
100
AcDbEntity
  8
0
100
AcDbLine
 10
-176.6264573180083
 20
-45.5177092867199
 30
0.0
 11
-176.4527305967748
 21
-45.94772368438546
 31
0.0
  0
LINE
  5
2D0
330
1F
100
AcDbEntity
  8
0
100
AcDbLine
 10
-176.4527305967748
 20
-45.94772368438546
 30
0.0
 11
-176.1733166350235
 21
-46.31708044475694
 31
0.0
  0
LINE
  5
2D1
330
1F
100
AcDbEntity
  8
0
100
AcDbLine
 10
-176.1733166350235
 20
-46.31708044475694
 30
0.0
 11
-175.8072547675173
 21
-46.60060037108618
 31
0.0
  0
LINE
  5
2D2
330
1F
100
AcDbEntity
  8
0
100
AcDbLine
 10
-175.8072547675173
 20
-46.60060037108618
 30
0.0
 11
-175.3794936023859
 21
-46.77895389886155
 31
0.0
  0
LINE
  5
2D3
330
1F
100
AcDbEntity
  8
0
100
AcDbLine
 10
-175.3794936023859
 20
-46.77895389886155
 30
0.0
 11
-174.9191902530576
 21
-46.83998055792721
 31
0.0
  0
LINE
  5
2D4
330
1F
100
AcDbEntity
  8
0
100
AcDbLine
 10
-174.9191902530576
 20
-46.83998055792721
 30
0.0
 11
-174.4577217489127
 21
-46.77951928904464
 31
0.0
  0
LINE
  5
2D5
330
1F
100
AcDbEntity
  8
0
100
AcDbLine
 10
-174.4577217489127
 20
-46.77951928904464
 30
0.0
 11
-174.0265445672576
 21
-46.60169260107608
 31
0.0
  0
LINE
  5
2D6
330
1F
100
AcDbEntity
  8
0
100
AcDbLine
 10
-174.0265445672576
 20
-46.60169260107608
 30
0.0
 11
-173.6550487391146
 21
-46.31862504629976
 31
0.0
  0
LINE
  5
2D7
330
1F
100
AcDbEntity
  8
0
100
AcDbLine
 10
-173.6550487391146
 20
-46.31862504629976
 30
0.0
 11
-173.3685533543026
 21
-45.94961535550418
 31
0.0
  0
LINE
  5
2D8
330
1F
100
AcDbEntity
  8
0
100
AcDbLine
 10
-173.3685533543026
 20
-45.94961535550418
 30
0.0
 11
-173.1865805010976
 21
-45.51981907857535
 31
0.0
  0
LINE
  5
2D9
330
1F
100
AcDbEntity
  8
0
100
AcDbLine
 10
-173.1865805010976
 20
-45.51981907857535
 30
0.0
 11
-173.1215254309675
 21
-45.05853209156484
 31
0.0
  0
LINE
  5
2DA
330
1F
100
AcDbEntity
  8
0
100
AcDbLine
 10
-173.1215254309675
 20
-45.05853209156484
 30
0.0
 11
-173.1778134234026
 21
-44.59719253166514
 31
0.0
  0
LINE
  5
2DB
330
1F
100
AcDbEntity
  8
0
100
AcDbLine
 10
-173.1778134234026
 20
-44.59719253166514
 30
0.0
 11
-173.3516003852951
 21
-44.1672377533789
 31
0.0
  0
LINE
  5
2DC
330
1F
100
AcDbEntity
  8
0
100
AcDbLine
 10
-173.3516003852951
 20
-44.1672377533789
 30
0.0
 11
-173.6310370056818
 21
-43.79796250774059
 31
0.0
  0
LINE
  5
2DD
330
1F
100
AcDbEntity
  8
0
100
AcDbLine
 10
-173.6310370056818
 20
-43.79796250774059
 30
0.0
 11
-173.9970778784353
 21
-43.51452414969297
 31
0.0
  0
LINE
  5
2DE
330
1F
100
AcDbEntity
  8
0
100
AcDbLine
 10
-173.9970778784353
 20
-43.51452414969297
 30
0.0
 11
-174.4247800209543
 21
-43.33623038759111
 31
0.0
  0
LINE
  5
2DF
330
1F
100
AcDbEntity
  8
0
100
AcDbLine
 10
-174.4247800209543
 20
-43.33623038759111
 30
0.0
 11
-174.8850021348699
 21
-43.27522567742723
 31
0.0
  0
LINE
  5
2E0
330
1F
100
AcDbEntity
  8
0
100
AcDbLine
 10
-36.93490263760053
 20
-43.34585863275846
 30
0.0
 11
-37.39627151426611
 21
-43.40635214322412
 31
0.0
  0
LINE
  5
2E1
330
1F
100
AcDbEntity
  8
0
100
AcDbLine
 10
-37.39627151426611
 20
-43.40635214322412
 30
0.0
 11
-37.82651190365543
 21
-43.58427801313396
 31
0.0
  0
LINE
  5
2E2
330
1F
100
AcDbEntity
  8
0
100
AcDbLine
 10
-37.82651190365543
 20
-43.58427801313396
 30
0.0
 11
-38.19630962019081
 21
-43.86751685374821
 31
0.0
  0
LINE
  5
2E3
330
1F
100
AcDbEntity
  8
0
100
AcDbLine
 10
-38.19630962019081
 20
-43.86751685374821
 30
0.0
 11
-38.48046577103143
 21
-44.23677456266778
 31
0.0
  0
LINE
  5
2E4
330
1F
100
AcDbEntity
  8
0
100
AcDbLine
 10
-38.48046577103143
 20
-44.23677456266778
 30
0.0
 11
-38.65961342652142
 21
-44.6668949999311
 31
0.0
  0
LINE
  5
2E5
330
1F
100
AcDbEntity
  8
0
100
AcDbLine
 10
-38.65961342652142
 20
-44.6668949999311
 30
0.0
 11
-38.72153802212228
 21
-45.12857215037662
 31
0.0
  0
LINE
  5
2E6
330
1F
100
AcDbEntity
  8
0
100
AcDbLine
 10
-38.72153802212228
 20
-45.12857215037662
 30
0.0
 11
-38.66201135409361
 21
-45.59034567714485
 31
0.0
  0
LINE
  5
2E7
330
1F
100
AcDbEntity
  8
0
100
AcDbLine
 10
-38.66201135409361
 20
-45.59034567714485
 30
0.0
 11
-38.48508190682543
 21
-46.0207443022565
 31
0.0
  0
LINE
  5
2E8
330
1F
100
AcDbEntity
  8
0
100
AcDbLine
 10
-38.48508190682543
 20
-46.0207443022565
 30
0.0
 11
-38.20280114186909
 21
-46.3904311046206
 31
0.0
  0
LINE
  5
2E9
330
1F
100
AcDbEntity
  8
0
100
AcDbLine
 10
-38.20280114186909
 20
-46.3904311046206
 30
0.0
 11
-37.83440381563494
 21
-46.67420438114394
 31
0.0
  0
LINE
  5
2EA
330
1F
100
AcDbEntity
  8
0
100
AcDbLine
 10
-37.83440381563494
 20
-46.67420438114394
 30
0.0
 11
-37.40499775546028
 21
-46.85271728737712
 31
0.0
  0
LINE
  5
2EB
330
1F
100
AcDbEntity
  8
0
100
AcDbLine
 10
-37.40499775546028
 20
-46.85271728737712
 30
0.0
 11
-36.94385222452289
 21
-46.91379848112989
 31
0.0
  0
LINE
  5
2EC
330
1F
100
AcDbEntity
  8
0
100
AcDbLine
 10
-36.94385222452289
 20
-46.91379848112989
 30
0.0
 11
-36.48240167549935
 21
-46.85328318280312
 31
0.0
  0
LINE
  5
2ED
330
1F
100
AcDbEntity
  8
0
100
AcDbLine
 10
-36.48240167549935
 20
-46.85328318280312
 30
0.0
 11
-36.0521013611958
 21
-46.6752975871527
 31
0.0
  0
LINE
  5
2EE
330
1F
100
AcDbEntity
  8
0
100
AcDbLine
 10
-36.0521013611958
 20
-46.6752975871527
 30
0.0
 11
-35.68228152402216
 21
-46.39197708638165
 31
0.0
  0
LINE
  5
2EF
330
1F
100
AcDbEntity
  8
0
100
AcDbLine
 10
-35.68228152402216
 20
-46.39197708638165
 30
0.0
 11
-35.39814698402645
 21
-46.02263766366298
 31
0.0
  0
LINE
  5
2F0
330
1F
100
AcDbEntity
  8
0
100
AcDbLine
 10
-35.39814698402645
 20
-46.02263766366298
 30
0.0
 11
-35.21905888025596
 21
-45.59245735410536
 31
0.0
  0
LINE
  5
2F1
330
1F
100
AcDbEntity
  8
0
100
AcDbLine
 10
-35.21905888025596
 20
-45.59245735410536
 30
0.0
 11
-35.15721582041362
 21
-45.13075821560122
 31
0.0
  0
LINE
  5
2F2
330
1F
100
AcDbEntity
  8
0
100
AcDbLine
 10
-35.15721582041362
 20
-45.13075821560122
 30
0.0
 11
-35.21682416079918
 21
-44.66900647669392
 31
0.0
  0
LINE
  5
2F3
330
1F
100
AcDbEntity
  8
0
100
AcDbLine
 10
-35.21682416079918
 20
-44.66900647669392
 30
0.0
 11
-35.39381353298186
 21
-44.23866757732247
 31
0.0
  0
LINE
  5
2F4
330
1F
100
AcDbEntity
  8
0
100
AcDbLine
 10
-35.39381353298186
 20
-44.23866757732247
 30
0.0
 11
-35.67611641857651
 21
-43.86906243511472
 31
0.0
  0
LINE
  5
2F5
330
1F
100
AcDbEntity
  8
0
100
AcDbLine
 10
-35.67611641857651
 20
-43.86906243511472
 30
0.0
 11
-36.04449213396644
 21
-43.58537087239095
 31
0.0
  0
LINE
  5
2F6
330
1F
100
AcDbEntity
  8
0
100
AcDbLine
 10
-36.04449213396644
 20
-43.58537087239095
 30
0.0
 11
-36.47383864242203
 21
-43.40691783845275
 31
0.0
  0
LINE
  5
2F7
330
1F
100
AcDbEntity
  8
0
100
AcDbLine
 10
-36.47383864242203
 20
-43.40691783845275
 30
0.0
 11
-36.93490263760053
 21
-43.34585863275846
 31
0.0
  0
LINE
  5
2F8
330
1F
100
AcDbEntity
  8
0
100
AcDbLine
 10
-106.6671744293179
 20
-253.0431398589513
 30
0.0
 11
-107.1798068357932
 21
-253.1110466514929
 31
0.0
  0
LINE
  5
2F9
330
1F
100
AcDbEntity
  8
0
100
AcDbLine
 10
-107.1798068357932
 20
-253.1110466514929
 30
0.0
 11
-107.6583361406949
 21
-253.3107770258425
 31
0.0
  0
LINE
  5
2FA
330
1F
100
AcDbEntity
  8
0
100
AcDbLine
 10
-107.6583361406949
 20
-253.3107770258425
 30
0.0
 11
-108.0701587722498
 21
-253.6287271239171
 31
0.0
  0
LINE
  5
2FB
330
1F
100
AcDbEntity
  8
0
100
AcDbLine
 10
-108.0701587722498
 20
-253.6287271239171
 30
0.0
 11
-108.3872124611925
 21
-254.0432393407259
 31
0.0
  0
LINE
  5
2FC
330
1F
100
AcDbEntity
  8
0
100
AcDbLine
 10
-108.3872124611925
 20
-254.0432393407259
 30
0.0
 11
-108.5878878975885
 21
-254.5260755302522
 31
0.0
  0
LINE
  5
2FD
330
1F
100
AcDbEntity
  8
0
100
AcDbLine
 10
-108.5878878975885
 20
-254.5260755302522
 30
0.0
 11
-108.658502072365
 21
-255.0443386618921
 31
0.0
  0
LINE
  5
2FE
330
1F
100
AcDbEntity
  8
0
100
AcDbLine
 10
-108.658502072365
 20
-255.0443386618921
 30
0.0
 11
-108.5942327098001
 21
-255.5627127001691
 31
0.0
  0
LINE
  5
2FF
330
1F
100
AcDbEntity
  8
0
100
AcDbLine
 10
-108.5942327098001
 20
-255.5627127001691
 30
0.0
 11
-108.3994495866445
 21
-256.0458685992791
 31
0.0
  0
LINE
  5
300
330
1F
100
AcDbEntity
  8
0
100
AcDbLine
 10
-108.3994495866445
 20
-256.0458685992791
 30
0.0
 11
-108.0874194386401
 21
-256.4608726451866
 31
0.0
  0
LINE
  5
301
330
1F
100
AcDbEntity
  8
0
100
AcDbLine
 10
-108.0874194386401
 20
-256.4608726451866
 30
0.0
 11
-107.6794038410956
 21
-256.7794328265554
 31
0.0
  0
LINE
  5
302
330
1F
100
AcDbEntity
  8
0
100
AcDbLine
 10
-107.6794038410956
 20
-256.7794328265554
 30
0.0
 11
-107.2032110087724
 21
-256.9798296142432
 31
0.0
  0
LINE
  5
303
330
1F
100
AcDbEntity
  8
0
100
AcDbLine
 10
-107.2032110087724
 20
-256.9798296142432
 30
0.0
 11
-106.6913000086044
 21
-257.0483988394367
 31
0.0
  0
LINE
  5
304
330
1F
100
AcDbEntity
  8
0
100
AcDbLine
 10
-106.6913000086044
 20
-257.0483988394367
 30
0.0
 11
-106.1785667683427
 21
-256.9804648833855
 31
0.0
  0
LINE
  5
305
330
1F
100
AcDbEntity
  8
0
100
AcDbLine
 10
-106.1785667683427
 20
-256.9804648833855
 30
0.0
 11
-105.6999632861961
 21
-256.7806600473567
 31
0.0
  0
LINE
  5
306
330
1F
100
AcDbEntity
  8
0
100
AcDbLine
 10
-105.6999632861961
 20
-256.7806600473567
 30
0.0
 11
-105.2881130096719
 21
-256.4626081413794
 31
0.0
  0
LINE
  5
307
330
1F
100
AcDbEntity
  8
0
100
AcDbLine
 10
-105.2881130096719
 20
-256.4626081413794
 30
0.0
 11
-104.9710856154815
 21
-256.0479940497905
 31
0.0
  0
LINE
  5
308
330
1F
100
AcDbEntity
  8
0
100
AcDbLine
 10
-104.9710856154815
 20
-256.0479940497905
 30
0.0
 11
-104.7704833679019
 21
-255.5650832158722
 31
0.0
  0
LINE
  5
309
330
1F
100
AcDbEntity
  8
0
100
AcDbLine
 10
-104.7704833679019
 20
-255.5650832158722
 30
0.0
 11
-104.699969665122
 21
-255.0467926711318
 31
0.0
  0
LINE
  5
30A
330
1F
100
AcDbEntity
  8
0
100
AcDbLine
 10
-104.699969665122
 20
-255.0467926711318
 30
0.0
 11
-104.7643398614717
 21
-254.5284457963643
 31
0.0
  0
LINE
  5
30B
330
1F
100
AcDbEntity
  8
0
100
AcDbLine
 10
-104.7643398614717
 20
-254.5284457963643
 30
0.0
 11
-104.9591971618716
 21
-254.0453643589326
 31
0.0
  0
LINE
  5
30C
330
1F
100
AcDbEntity
  8
0
100
AcDbLine
 10
-104.9591971618716
 20
-254.0453643589326
 30
0.0
 11
-105.271254954847
 21
-253.6304621209267
 31
0.0
  0
LINE
  5
30D
330
1F
100
AcDbEntity
  8
0
100
AcDbLine
 10
-105.271254954847
 20
-253.6304621209267
 30
0.0
 11
-105.67924425764
 21
-253.3120038143385
 31
0.0
  0
LINE
  5
30E
330
1F
100
AcDbEntity
  8
0
100
AcDbLine
 10
-105.67924425764
 20
-253.3120038143385
 30
0.0
 11
-106.1553639011463
 21
-253.1116816710435
 31
0.0
  0
LINE
  5
30F
330
1F
100
AcDbEntity
  8
0
100
AcDbLine
 10
-106.1553639011463
 20
-253.1116816710435
 30
0.0
 11
-106.6671744293179
 21
-253.0431398589513
 31
0.0
  0
LINE
  5
310
330
1F
100
AcDbEntity
  8
0
100
AcDbLine
 10
-101.5872337044631
 20
-258.2253093944211
 30
0.0
 11
-102.0979702794963
 21
-258.2929851731921
 31
0.0
  0
LINE
  5
311
330
1F
100
AcDbEntity
  8
0
100
AcDbLine
 10
-102.0979702794963
 20
-258.2929851731921
 30
0.0
 11
-102.5746947872552
 21
-258.4920360700036
 31
0.0
  0
LINE
  5
312
330
1F
100
AcDbEntity
  8
0
100
AcDbLine
 10
-102.5746947872552
 20
-258.4920360700036
 30
0.0
 11
-102.9849265938018
 21
-258.8089044795861
 31
0.0
  0
LINE
  5
313
330
1F
100
AcDbEntity
  8
0
100
AcDbLine
 10
-102.9849265938018
 20
-258.8089044795861
 30
0.0
 11
-103.3007118191497
 21
-259.2220064405014
 31
0.0
  0
LINE
  5
314
330
1F
100
AcDbEntity
  8
0
100
AcDbLine
 10
-103.3007118191497
 20
-259.2220064405014
 30
0.0
 11
-103.5005276136519
 21
-259.7031998415518
 31
0.0
  0
LINE
  5
315
330
1F
100
AcDbEntity
  8
0
100
AcDbLine
 10
-103.5005276136519
 20
-259.7031998415518
 30
0.0
 11
-103.5707496029674
 21
-260.2196995528369
 31
0.0
  0
LINE
  5
316
330
1F
100
AcDbEntity
  8
0
100
AcDbLine
 10
-103.5707496029674
 20
-260.2196995528369
 30
0.0
 11
-103.5065823108864
 21
-260.7363096937236
 31
0.0
  0
LINE
  5
317
330
1F
100
AcDbEntity
  8
0
100
AcDbLine
 10
-103.5065823108864
 20
-260.7363096937236
 30
0.0
 11
-103.3123886326167
 21
-261.2178214442236
 31
0.0
  0
LINE
  5
318
330
1F
100
AcDbEntity
  8
0
100
AcDbLine
 10
-103.3123886326167
 20
-261.2178214442236
 30
0.0
 11
-103.0013951903444
 21
-261.6314131887819
 31
0.0
  0
LINE
  5
319
330
1F
100
AcDbEntity
  8
0
100
AcDbLine
 10
-103.0013951903444
 20
-261.6314131887819
 30
0.0
 11
-102.594792932425
 21
-261.9488892338256
 31
0.0
  0
LINE
  5
31A
330
1F
100
AcDbEntity
  8
0
100
AcDbLine
 10
-102.594792932425
 20
-261.9488892338256
 30
0.0
 11
-102.1202937402595
 21
-262.1486040041282
 31
0.0
  0
LINE
  5
31B
330
1F
100
AcDbEntity
  8
0
100
AcDbLine
 10
-102.1202937402595
 20
-262.1486040041282
 30
0.0
 11
-101.6102412104159
 21
-262.216939861863
 31
0.0
  0
LINE
  5
31C
330
1F
100
AcDbEntity
  8
0
100
AcDbLine
 10
-101.6102412104159
 20
-262.216939861863
 30
0.0
 11
-101.0994045462175
 21
-262.1492371112136
 31
0.0
  0
LINE
  5
31D
330
1F
100
AcDbEntity
  8
0
100
AcDbLine
 10
-101.0994045462175
 20
-262.1492371112136
 30
0.0
 11
-100.6226064229402
 21
-261.9501122780284
 31
0.0
  0
LINE
  5
31E
330
1F
100
AcDbEntity
  8
0
100
AcDbLine
 10
-100.6226064229402
 20
-261.9501122780284
 30
0.0
 11
-100.2123471997412
 21
-261.6331427787692
 31
0.0
  0
LINE
  5
31F
330
1F
100
AcDbEntity
  8
0
100
AcDbLine
 10
-100.2123471997412
 20
-261.6331427787692
 30
0.0
 11
-99.89658810287656
 21
-261.2199396617719
 31
0.0
  0
LINE
  5
320
330
1F
100
AcDbEntity
  8
0
100
AcDbLine
 10
-99.89658810287656
 20
-261.2199396617719
 30
0.0
 11
-99.696844980887
 21
-260.7386721429249
 31
0.0
  0
LINE
  5
321
330
1F
100
AcDbEntity
  8
0
100
AcDbLine
 10
-99.696844980887
 20
-260.7386721429249
 30
0.0
 11
-99.62672273557209
 21
-260.2221452119306
 31
0.0
  0
LINE
  5
322
330
1F
100
AcDbEntity
  8
0
100
AcDbLine
 10
-99.62672273557209
 20
-260.2221452119306
 30
0.0
 11
-99.69099011681827
 21
-259.7055620429222
 31
0.0
  0
LINE
  5
323
330
1F
100
AcDbEntity
  8
0
100
AcDbLine
 10
-99.69099011681827
 20
-259.7055620429222
 30
0.0
 11
-99.88525741060663
 21
-259.2241242287944
 31
0.0
  0
LINE
  5
324
330
1F
100
AcDbEntity
  8
0
100
AcDbLine
 10
-99.88525741060663
 20
-259.2241242287944
 30
0.0
 11
-100.1962782695316
 21
-258.8106335739118
 31
0.0
  0
LINE
  5
325
330
1F
100
AcDbEntity
  8
0
100
AcDbLine
 10
-100.1962782695316
 20
-258.8106335739118
 30
0.0
 11
-100.602854398969
 21
-258.4932586849506
 31
0.0
  0
LINE
  5
326
330
1F
100
AcDbEntity
  8
0
100
AcDbLine
 10
-100.602854398969
 20
-258.4932586849506
 30
0.0
 11
-101.0772809186217
 21
-258.293618032446
 31
0.0
  0
LINE
  5
327
330
1F
100
AcDbEntity
  8
0
100
AcDbLine
 10
-101.0772809186217
 20
-258.293618032446
 30
0.0
 11
-101.5872337044631
 21
-258.2253093944211
 31
0.0
  0
LINE
  5
328
330
1F
100
AcDbEntity
  8
0
100
AcDbLine
 10
111.1457763462905
 20
-268.3355925796282
 30
0.0
 11
105.5141626123478
 21
-274.063198394492
 31
0.0
  0
LINE
  5
329
330
1F
100
AcDbEntity
  8
0
100
AcDbLine
 10
166.3829664829447
 20
-262.025049357136
 30
0.0
 11
166.5628324126739
 21
-263.3293494399347
 31
0.0
  0
LINE
  5
32A
330
1F
100
AcDbEntity
  8
0
100
AcDbLine
 10
203.8187141068337
 20
-139.4673116182132
 30
0.0
 11
203.7987594090982
 21
-137.4318130467657
 31
0.0
  0
LINE
  5
32B
330
1F
100
AcDbEntity
  8
0
100
AcDbLine
 10
165.0769546718466
 20
-259.7657272891711
 30
0.0
 11
165.8761454942139
 21
-260.8095802689008
 31
0.0
  0
LINE
  5
32C
330
1F
100
AcDbEntity
  8
0
100
AcDbLine
 10
216.3198119031423
 20
-44.99866479634618
 30
0.0
 11
223.1453540186106
 21
-45.00285096698267
 31
0.0
  0
LINE
  5
32D
330
1F
100
AcDbEntity
  8
0
100
AcDbLine
 10
105.5991748654856
 20
-291.9657289286734
 30
0.0
 11
105.5141626123478
 21
-274.063198394492
 31
0.0
  0
LINE
  5
32E
330
1F
100
AcDbEntity
  8
0
100
AcDbLine
 10
203.8874787352712
 20
-146.4817151840218
 30
0.0
 11
203.8675097344106
 21
-144.4447576082281
 31
0.0
  0
LINE
  5
32F
330
1F
100
AcDbEntity
  8
0
100
AcDbLine
 10
111.0950219720906
 20
-258.2569156012605
 30
0.0
 11
105.4119167473036
 21
-252.531482043217
 31
0.0
  0
LINE
  5
330
330
1F
100
AcDbEntity
  8
0
100
AcDbLine
 10
217.1978595000577
 20
-128.680999856591
 30
0.0
 11
224.0527230150593
 21
-128.6852220704353
 31
0.0
  0
LINE
  5
331
330
1F
100
AcDbEntity
  8
0
100
AcDbLine
 10
198.0844435847067
 20
-139.4637776783637
 30
0.0
 11
193.5869779573277
 21
-139.4610059617275
 31
0.0
  0
LINE
  5
332
330
1F
100
AcDbEntity
  8
0
100
AcDbLine
 10
198.0844435847067
 20
-139.4637776783637
 30
0.0
 11
198.0650851822221
 21
-137.4282798418481
 31
0.0
  0
LINE
  5
333
330
1F
100
AcDbEntity
  8
0
100
AcDbLine
 10
225.4292751989082
 20
-255.6381498682289
 30
0.0
 11
225.3201327479667
 21
-245.5724554059051
 31
0.0
  0
LINE
  5
334
330
1F
100
AcDbEntity
  8
0
100
AcDbLine
 10
218.5299287452922
 20
-255.6338726789288
 30
0.0
 11
225.4292751989082
 21
-255.6381498682289
 31
0.0
  0
LINE
  5
335
330
1F
100
AcDbEntity
  8
0
100
AcDbLine
 10
199.3411662806261
 20
-271.6056902500499
 30
0.0
 11
199.3607910270941
 21
-273.6691936310491
 31
0.0
  0
LINE
  5
336
330
1F
100
AcDbEntity
  8
0
100
AcDbLine
 10
205.1141475283374
 20
-271.6092720642742
 30
0.0
 11
218.6976410951257
 21
-271.617699867585
 31
0.0
  0
LINE
  5
337
330
1F
100
AcDbEntity
  8
0
100
AcDbLine
 10
205.0445014266683
 20
-264.5049529543811
 30
0.0
 11
199.273601375247
 21
-264.5013737222093
 31
0.0
  0
LINE
  5
338
330
1F
100
AcDbEntity
  8
0
100
AcDbLine
 10
199.3607910270941
 20
-273.6691936310491
 30
0.0
 11
205.1343767742777
 21
-273.6727761954249
 31
0.0
  0
LINE
  5
339
330
1F
100
AcDbEntity
  8
0
100
AcDbLine
 10
218.4243132054185
 20
-245.5681825884134
 30
0.0
 11
217.5814450848549
 21
-165.2386278758935
 31
0.0
  0
LINE
  5
33A
330
1F
100
AcDbEntity
  8
0
100
AcDbLine
 10
224.340975095516
 20
-155.2693545044587
 30
0.0
 11
217.47679678713
 21
-155.2651208081066
 31
0.0
  0
LINE
  5
33B
330
1F
100
AcDbEntity
  8
0
100
AcDbLine
 10
223.1453540186106
 20
-45.00285096698267
 30
0.0
 11
223.0385335370675
 21
-35.15130081161603
 31
0.0
  0
LINE
  5
33C
330
1F
100
AcDbEntity
  8
0
100
AcDbLine
 10
194.766543547401
 20
-266.5605816628022
 30
0.0
 11
194.8133393194749
 21
-271.6028809849028
 31
0.0
  0
LINE
  5
33D
330
1F
100
AcDbEntity
  8
0
100
AcDbLine
 10
199.2932119739204
 20
-266.5633894905289
 30
0.0
 11
194.766543547401
 21
-266.5605816628022
 31
0.0
  0
LINE
  5
33E
330
1F
100
AcDbEntity
  8
0
100
AcDbLine
 10
199.2932119739204
 20
-266.5633894905289
 30
0.0
 11
199.273601375247
 21
-264.5013737222093
 31
0.0
  0
LINE
  5
33F
330
1F
100
AcDbEntity
  8
0
100
AcDbLine
 10
202.7110583061374
 20
-26.47979209476003
 30
0.0
 11
202.6913332961539
 21
-24.46772304840031
 31
0.0
  0
LINE
  5
340
330
1F
100
AcDbEntity
  8
0
100
AcDbLine
 10
223.0385335370675
 20
-35.15130081161603
 30
0.0
 11
216.2164432983254
 21
-35.1471188740196
 31
0.0
  0
LINE
  5
341
330
1F
100
AcDbEntity
  8
0
100
AcDbLine
 10
224.0527230150593
 20
-128.6852220704353
 30
0.0
 11
223.9449830360253
 21
-118.7488709900135
 31
0.0
  0
LINE
  5
342
330
1F
100
AcDbEntity
  8
0
100
AcDbLine
 10
165.8761454942139
 20
-260.8095802689008
 30
0.0
 11
166.3829664829447
 21
-262.025049357136
 31
0.0
  0
LINE
  5
343
330
1F
100
AcDbEntity
  8
0
100
AcDbLine
 10
162.9101637175227
 20
-268.1959068473088
 30
0.0
 11
161.6226167364876
 21
-268.366905545587
 31
0.0
  0
LINE
  5
344
330
1F
100
AcDbEntity
  8
0
100
AcDbLine
 10
164.107292552253
 20
-267.692982172004
 30
0.0
 11
162.9101637175227
 21
-268.1959068473088
 31
0.0
  0
LINE
  5
345
330
1F
100
AcDbEntity
  8
0
100
AcDbLine
 10
217.5814450848549
 20
-165.2386278758935
 30
0.0
 11
224.4491180041396
 21
-165.2428658841354
 31
0.0
  0
LINE
  5
346
330
1F
100
AcDbEntity
  8
0
100
AcDbLine
 10
192.5197086949196
 20
-24.46149126542451
 30
0.0
 11
196.9907516732301
 21
-24.46423051019696
 31
0.0
  0
LINE
  5
347
330
1F
100
AcDbEntity
  8
0
100
AcDbLine
 10
202.6913332961539
 20
-24.46772304840031
 30
0.0
 11
216.1044745982894
 21
-24.47594079029459
 31
0.0
  0
LINE
  5
348
330
1F
100
AcDbEntity
  8
0
100
AcDbLine
 10
217.363350035425
 20
-144.4530769951846
 30
0.0
 11
217.47679678713
 21
-155.2651208081066
 31
0.0
  0
LINE
  5
349
330
1F
100
AcDbEntity
  8
0
100
AcDbLine
 10
111.2937212629341
 20
-297.71412495154
 30
0.0
 11
105.5991748654856
 21
-291.9657289286734
 31
0.0
  0
LINE
  5
34A
330
1F
100
AcDbEntity
  8
0
100
AcDbLine
 10
136.2152380248609
 20
-295.4312609332939
 30
0.0
 11
133.9628062398992
 21
-297.7282085327173
 31
0.0
  0
LINE
  5
34B
330
1F
100
AcDbEntity
  8
0
100
AcDbLine
 10
218.9480471789712
 20
-295.4826542084377
 30
0.0
 11
218.6976410951257
 21
-271.617699867585
 31
0.0
  0
LINE
  5
34C
330
1F
100
AcDbEntity
  8
0
100
AcDbLine
 10
198.1511533575896
 20
-146.4781787109838
 30
0.0
 11
203.8874787352712
 21
-146.4817151840218
 31
0.0
  0
LINE
  5
34D
330
1F
100
AcDbEntity
  8
0
100
AcDbLine
 10
162.8355616443436
 20
-258.4606207768231
 30
0.0
 11
164.0398741162151
 21
-258.9645629112807
 31
0.0
  0
LINE
  5
34E
330
1F
100
AcDbEntity
  8
0
100
AcDbLine
 10
222.64737817996
 20
0.9231164107882671
 30
0.0
 11
215.8379280270286
 21
0.9272828661105412
 31
0.0
  0
LINE
  5
34F
330
1F
100
AcDbEntity
  8
0
100
AcDbLine
 10
215.8379280270286
 20
0.9272828661105412
 30
0.0
 11
215.7285349922993
 21
11.35298714185872
 31
0.0
  0
LINE
  5
350
330
1F
100
AcDbEntity
  8
0
100
AcDbLine
 10
217.09360111127
 20
-118.7446530639829
 30
0.0
 11
216.3198119031423
 21
-44.99866479634618
 31
0.0
  0
LINE
  5
351
330
1F
100
AcDbEntity
  8
0
100
AcDbLine
 10
202.6234228031092
 20
-17.54044640350534
 30
0.0
 11
196.9248705119335
 21
-17.5369563514396
 31
0.0
  0
LINE
  5
352
330
1F
100
AcDbEntity
  8
0
100
AcDbLine
 10
222.7538030933343
 20
-8.891952354506861
 30
0.0
 11
222.64737817996
 21
0.9231164107882671
 31
0.0
  0
LINE
  5
353
330
1F
100
AcDbEntity
  8
0
100
AcDbLine
 10
194.8133393194749
 20
-271.6028809849028
 30
0.0
 11
199.3411662806261
 21
-271.6056902500499
 31
0.0
  0
LINE
  5
354
330
1F
100
AcDbEntity
  8
0
100
AcDbLine
 10
205.0647160890182
 20
-266.5669694720412
 30
0.0
 11
205.0445014266683
 21
-264.5049529543811
 31
0.0
  0
LINE
  5
355
330
1F
100
AcDbEntity
  8
0
100
AcDbLine
 10
218.6447340454214
 20
-266.5753929630844
 30
0.0
 11
205.0647160890182
 21
-266.5669694720412
 31
0.0
  0
LINE
  5
356
330
1F
100
AcDbEntity
  8
0
100
AcDbLine
 10
166.5628324126739
 20
-263.3293494399347
 30
0.0
 11
166.4034222321111
 21
-264.6336118281969
 31
0.0
  0
LINE
  5
357
330
1F
100
AcDbEntity
  8
0
100
AcDbLine
 10
203.7987594090982
 20
-137.4318130467657
 30
0.0
 11
198.0650851822221
 21
-137.4282798418481
 31
0.0
  0
LINE
  5
358
330
1F
100
AcDbEntity
  8
0
100
AcDbLine
 10
133.9628062398992
 20
-297.7282085327173
 30
0.0
 11
111.2937212629341
 21
-297.71412495154
 31
0.0
  0
LINE
  5
359
330
1F
100
AcDbEntity
  8
0
100
AcDbLine
 10
165.9155357301986
 20
-265.8489358920122
 30
0.0
 11
165.1323746343438
 21
-266.8924521185556
 31
0.0
  0
LINE
  5
35A
330
1F
100
AcDbEntity
  8
0
100
AcDbLine
 10
198.1317810793948
 20
-144.4412218709124
 30
0.0
 11
198.1511533575896
 21
-146.4781787109838
 31
0.0
  0
LINE
  5
35B
330
1F
100
AcDbEntity
  8
0
100
AcDbLine
 10
192.4740791516513
 20
-19.54485446485801
 30
0.0
 11
192.5197086949196
 21
-24.46149126542451
 31
0.0
  0
LINE
  5
35C
330
1F
100
AcDbEntity
  8
0
100
AcDbLine
 10
196.9439924681153
 20
-19.54759232560815
 30
0.0
 11
192.4740791516513
 21
-19.54485446485801
 31
0.0
  0
LINE
  5
35D
330
1F
100
AcDbEntity
  8
0
100
AcDbLine
 10
193.6331718191147
 20
-144.4384487444996
 30
0.0
 11
198.1317810793948
 21
-144.4412218709124
 31
0.0
  0
LINE
  5
35E
330
1F
100
AcDbEntity
  8
0
100
AcDbLine
 10
215.9409138464436
 20
-8.88778168963587
 30
0.0
 11
222.7538030933343
 21
-8.891952354506861
 31
0.0
  0
LINE
  5
35F
330
1F
100
AcDbEntity
  8
0
100
AcDbLine
 10
215.7285349922993
 20
11.35298714185872
 30
0.0
 11
187.3896735175807
 21
11.37031736032905
 31
0.0
  0
LINE
  5
360
330
1F
100
AcDbEntity
  8
0
100
AcDbLine
 10
161.5460422718205
 20
-258.2881965409018
 30
0.0
 11
162.8355616443436
 21
-258.4606207768231
 31
0.0
  0
LINE
  5
361
330
1F
100
AcDbEntity
  8
0
100
AcDbLine
 10
202.6431337712626
 20
-19.55108309918224
 30
0.0
 11
202.6234228031092
 21
-17.54044640350534
 31
0.0
  0
LINE
  5
362
330
1F
100
AcDbEntity
  8
0
100
AcDbLine
 10
165.1323746343438
 20
-266.8924521185556
 30
0.0
 11
164.107292552253
 21
-267.692982172004
 31
0.0
  0
LINE
  5
363
330
1F
100
AcDbEntity
  8
0
100
AcDbLine
 10
111.1457763462905
 20
-268.3355925796282
 30
0.0
 11
161.6226167364876
 21
-268.366905545587
 31
0.0
  0
LINE
  5
364
330
1F
100
AcDbEntity
  8
0
100
AcDbLine
 10
196.9439924681153
 20
-19.54759232560815
 30
0.0
 11
196.9248705119335
 21
-17.5369563514396
 31
0.0
  0
LINE
  5
365
330
1F
100
AcDbEntity
  8
0
100
AcDbLine
 10
216.05288608161
 20
-19.5592966890039
 30
0.0
 11
202.6431337712626
 21
-19.55108309918224
 31
0.0
  0
LINE
  5
366
330
1F
100
AcDbEntity
  8
0
100
AcDbLine
 10
197.0098872516352
 20
-26.4762988342772
 30
0.0
 11
202.7110583061374
 21
-26.47979209476003
 31
0.0
  0
LINE
  5
367
330
1F
100
AcDbEntity
  8
0
100
AcDbLine
 10
111.0950219720906
 20
-258.2569156012605
 30
0.0
 11
161.5460422718205
 21
-258.2881965409018
 31
0.0
  0
LINE
  5
368
330
1F
100
AcDbEntity
  8
0
100
AcDbLine
 10
105.4119167473036
 20
-252.531482043217
 30
0.0
 11
105.3706466948376
 21
-243.8405187155869
 31
0.0
  0
LINE
  5
369
330
1F
100
AcDbEntity
  8
0
100
AcDbLine
 10
196.9907516732301
 20
-24.46423051019696
 30
0.0
 11
197.0098872516352
 21
-26.4762988342772
 31
0.0
  0
LINE
  5
36A
330
1F
100
AcDbEntity
  8
0
100
AcDbLine
 10
216.05288608161
 20
-19.5592966890039
 30
0.0
 11
215.9409138464436
 21
-8.88778168963587
 31
0.0
  0
LINE
  5
36B
330
1F
100
AcDbEntity
  8
0
100
AcDbLine
 10
216.1044745982894
 20
-24.47594079029459
 30
0.0
 11
216.2164432983254
 21
-35.1471188740196
 31
0.0
  0
LINE
  5
36C
330
1F
100
AcDbEntity
  8
0
100
AcDbLine
 10
223.9449830360253
 20
-118.7488709900135
 30
0.0
 11
217.09360111127
 21
-118.7446530639829
 31
0.0
  0
LINE
  5
36D
330
1F
100
AcDbEntity
  8
0
100
AcDbLine
 10
203.8675097344106
 20
-144.4447576082281
 30
0.0
 11
217.363350035425
 21
-144.4530769951846
 31
0.0
  0
LINE
  5
36E
330
1F
100
AcDbEntity
  8
0
100
AcDbLine
 10
166.4034222321111
 20
-264.6336118281969
 30
0.0
 11
165.9155357301986
 21
-265.8489358920122
 31
0.0
  0
LINE
  5
36F
330
1F
100
AcDbEntity
  8
0
100
AcDbLine
 10
105.3706466948376
 20
-243.8405187155869
 30
0.0
 11
187.3896735175807
 21
11.37031736032905
 31
0.0
  0
LINE
  5
370
330
1F
100
AcDbEntity
  8
0
100
AcDbLine
 10
218.9480471789712
 20
-295.4826542084377
 30
0.0
 11
136.2152380248609
 21
-295.4312609332939
 31
0.0
  0
LINE
  5
371
330
1F
100
AcDbEntity
  8
0
100
AcDbLine
 10
164.0398741162151
 20
-258.9645629112807
 30
0.0
 11
165.0769546718466
 21
-259.7657272891711
 31
0.0
  0
LINE
  5
372
330
1F
100
AcDbEntity
  8
0
100
AcDbLine
 10
193.5869779573277
 20
-139.4610059617275
 30
0.0
 11
193.6331718191147
 21
-144.4384487444996
 31
0.0
  0
LINE
  5
373
330
1F
100
AcDbEntity
  8
0
100
AcDbLine
 10
205.1343767742777
 20
-273.6727761954249
 30
0.0
 11
205.1141475283374
 21
-271.6092720642742
 31
0.0
  0
LINE
  5
374
330
1F
100
AcDbEntity
  8
0
100
AcDbLine
 10
218.6447340454214
 20
-266.5753929630844
 30
0.0
 11
218.5299287452922
 21
-255.6338726789288
 31
0.0
  0
LINE
  5
375
330
1F
100
AcDbEntity
  8
0
100
AcDbLine
 10
217.3111235027796
 20
-139.4756267758339
 30
0.0
 11
203.8187141068337
 21
-139.4673116182132
 31
0.0
  0
LINE
  5
376
330
1F
100
AcDbEntity
  8
0
100
AcDbLine
 10
225.3201327479667
 20
-245.5724554059051
 30
0.0
 11
218.4243132054185
 21
-245.5681825884134
 31
0.0
  0
LINE
  5
377
330
1F
100
AcDbEntity
  8
0
100
AcDbLine
 10
224.4491180041396
 20
-165.2428658841354
 30
0.0
 11
224.340975095516
 21
-155.2693545044587
 31
0.0
  0
LINE
  5
378
330
1F
100
AcDbEntity
  8
0
100
AcDbLine
 10
217.1978595000577
 20
-128.680999856591
 30
0.0
 11
217.3111235027796
 21
-139.4756267758339
 31
0.0
  0
LINE
  5
379
330
1F
100
AcDbEntity
  8
0
100
AcDbLine
 10
-10.99922536867581
 20
-139.8567505935975
 30
0.0
 11
-11.48756276417075
 21
-140.0598985660407
 31
0.0
  0
LINE
  5
37A
330
1F
100
AcDbEntity
  8
0
100
AcDbLine
 10
-8.52272898043883
 20
-142.3515644218875
 30
0.0
 11
-8.453284321630509
 21
-141.824575282723
 31
0.0
  0
LINE
  5
37B
330
1F
100
AcDbEntity
  8
0
100
AcDbLine
 10
-12.5014659841041
 20
-141.8226629830685
 30
0.0
 11
-12.43307746408763
 21
-142.3497171828098
 31
0.0
  0
LINE
  5
37C
330
1F
100
AcDbEntity
  8
0
100
AcDbLine
 10
-9.044789556170734
 20
-140.384589802068
 30
0.0
 11
-9.463654238280961
 21
-140.060854543639
 31
0.0
  0
LINE
  5
37D
330
1F
100
AcDbEntity
  8
0
100
AcDbLine
 10
-11.90707574961917
 20
-140.3832378008923
 30
0.0
 11
-12.22917804242331
 21
-140.8047438377494
 31
0.0
  0
LINE
  5
37E
330
1F
100
AcDbEntity
  8
0
100
AcDbLine
 10
-10.47941568693177
 20
-143.8600314918268
 30
0.0
 11
-9.955420253988
 21
-143.7908829708938
 31
0.0
  0
LINE
  5
37F
330
1F
100
AcDbEntity
  8
0
100
AcDbLine
 10
-14.10011741495113
 20
-118.4891691039334
 30
0.0
 11
-6.799612969520243
 21
-118.4936634978937
 31
0.0
  0
LINE
  5
380
330
1F
100
AcDbEntity
  8
0
100
AcDbLine
 10
-11.00327204036951
 20
-143.7903879318584
 30
0.0
 11
-10.47941568693177
 21
-143.8600314918268
 31
0.0
  0
LINE
  5
381
330
1F
100
AcDbEntity
  8
0
100
AcDbLine
 10
-8.723532195873958
 20
-140.8063997655911
 30
0.0
 11
-9.044789556170734
 21
-140.384589802068
 31
0.0
  0
LINE
  5
382
330
1F
100
AcDbEntity
  8
0
100
AcDbLine
 10
-8.725390097074195
 20
-142.8426004936134
 30
0.0
 11
-8.52272898043883
 21
-142.3515644218875
 31
0.0
  0
LINE
  5
383
330
1F
100
AcDbEntity
  8
0
100
AcDbLine
 10
-9.047464340133693
 20
-143.2642124504376
 30
0.0
 11
-8.725390097074195
 21
-142.8426004936134
 31
0.0
  0
LINE
  5
384
330
1F
100
AcDbEntity
  8
0
100
AcDbLine
 10
-9.467005686389223
 20
-143.587657551962
 30
0.0
 11
-9.047464340133693
 21
-143.2642124504376
 31
0.0
  0
LINE
  5
385
330
1F
100
AcDbEntity
  8
0
100
AcDbLine
 10
-9.955420253988
 20
-143.7908829708938
 30
0.0
 11
-9.467005686389223
 21
-143.587657551962
 31
0.0
  0
LINE
  5
386
330
1F
100
AcDbEntity
  8
0
100
AcDbLine
 10
-9.463654238280961
 20
-140.060854543639
 30
0.0
 11
-9.951584109340462
 21
-139.8572454337332
 31
0.0
  0
LINE
  5
387
330
1F
100
AcDbEntity
  8
0
100
AcDbLine
 10
-11.49127885581861
 20
-143.5867012298593
 30
0.0
 11
-11.00327204036951
 21
-143.7903879318584
 31
0.0
  0
LINE
  5
388
330
1F
100
AcDbEntity
  8
0
100
AcDbLine
 10
-11.91017158767249
 20
-143.2628600514626
 30
0.0
 11
-11.49127885581861
 21
-143.5867012298593
 31
0.0
  0
LINE
  5
389
330
1F
100
AcDbEntity
  8
0
100
AcDbLine
 10
-12.23140058716118
 20
-142.8409442212674
 30
0.0
 11
-11.91017158767249
 21
-143.2628600514626
 31
0.0
  0
LINE
  5
38A
330
1F
100
AcDbEntity
  8
0
100
AcDbLine
 10
-12.43307746408763
 20
-142.3497171828098
 30
0.0
 11
-12.23140058716118
 21
-142.8409442212674
 31
0.0
  0
LINE
  5
38B
330
1F
100
AcDbEntity
  8
0
100
AcDbLine
 10
-8.453284321630509
 20
-141.824575282723
 30
0.0
 11
-8.521778146843662
 21
-141.2975493575612
 31
0.0
  0
LINE
  5
38C
330
1F
100
AcDbEntity
  8
0
100
AcDbLine
 10
-9.951584109340462
 20
-139.8572454337332
 30
0.0
 11
-10.47533524092972
 21
-139.7876303472444
 31
0.0
  0
LINE
  5
38D
330
1F
100
AcDbEntity
  8
0
100
AcDbLine
 10
-8.521778146843662
 20
-141.2975493575612
 30
0.0
 11
-8.723532195873958
 21
-140.8063997655911
 31
0.0
  0
LINE
  5
38E
330
1F
100
AcDbEntity
  8
0
100
AcDbLine
 10
-12.43191610344828
 20
-141.2957023173831
 30
0.0
 11
-12.5014659841041
 21
-141.8226629830685
 31
0.0
  0
LINE
  5
38F
330
1F
100
AcDbEntity
  8
0
100
AcDbLine
 10
-12.22917804242331
 20
-140.8047438377494
 30
0.0
 11
-12.43191610344828
 21
-141.2957023173831
 31
0.0
  0
LINE
  5
390
330
1F
100
AcDbEntity
  8
0
100
AcDbLine
 10
-11.48756276417075
 20
-140.0598985660407
 30
0.0
 11
-11.90707574961917
 21
-140.3832378008923
 31
0.0
  0
LINE
  5
391
330
1F
100
AcDbEntity
  8
0
100
AcDbLine
 10
-10.47533524092972
 20
-139.7876303472444
 30
0.0
 11
-10.99922536867581
 21
-139.8567505935975
 31
0.0
  0
LINE
  5
392
330
1F
100
AcDbEntity
  8
0
100
AcDbLine
 10
-14.11364189571234
 20
-128.651193701544
 30
0.0
 11
-14.10011741495113
 21
-118.4891691039334
 31
0.0
  0
LINE
  5
393
330
1F
100
AcDbEntity
  8
0
100
AcDbLine
 10
-6.80934335382073
 20
-128.6556927682246
 30
0.0
 11
-14.11364189571234
 21
-128.651193701544
 31
0.0
  0
LINE
  5
394
330
1F
100
AcDbEntity
  8
0
100
AcDbLine
 10
-14.16229572685752
 20
-165.2087102225025
 30
0.0
 11
-14.14872066717011
 21
-155.0086816304148
 31
0.0
  0
LINE
  5
395
330
1F
100
AcDbEntity
  8
0
100
AcDbLine
 10
-6.799612969520243
 20
-118.4936634978937
 30
0.0
 11
-6.80934335382073
 21
-128.6556927682246
 31
0.0
  0
LINE
  5
396
330
1F
100
AcDbEntity
  8
0
100
AcDbLine
 10
-6.834581285926674
 20
-155.0131928281571
 30
0.0
 11
-6.844348059979315
 21
-165.2132261192021
 31
0.0
  0
LINE
  5
397
330
1F
100
AcDbEntity
  8
0
100
AcDbLine
 10
-14.14872066717011
 20
-155.0086816304148
 30
0.0
 11
-6.834581285926674
 21
-155.0131928281571
 31
0.0
  0
LINE
  5
398
330
1F
100
AcDbEntity
  8
0
100
AcDbLine
 10
-6.844348059979315
 20
-165.2132261192021
 30
0.0
 11
-14.16229572685752
 21
-165.2087102225025
 31
0.0
  0
LINE
  5
399
330
1F
100
AcDbEntity
  8
0
100
AcDbLine
 10
-6.72922410523447
 20
-44.98231213805017
 30
0.0
 11
-14.00228234365536
 21
-44.97785147389023
 31
0.0
  0
LINE
  5
39A
330
1F
100
AcDbEntity
  8
0
100
AcDbLine
 10
-6.719576754799816
 20
-34.90700015954976
 30
0.0
 11
-6.72922410523447
 21
-44.98231213805017
 31
0.0
  0
LINE
  5
39B
330
1F
100
AcDbEntity
  8
0
100
AcDbLine
 10
-8.59703776801634
 20
-20.87381403207771
 30
0.0
 11
-8.916329674087711
 21
-20.45715667649207
 31
0.0
  0
LINE
  5
39C
330
1F
100
AcDbEntity
  8
0
100
AcDbLine
 10
-8.918969287558552
 20
-23.30160118610171
 30
0.0
 11
-8.598871208637512
 21
-22.88514005918965
 31
0.0
  0
LINE
  5
39D
330
1F
100
AcDbEntity
  8
0
100
AcDbLine
 10
-6.685035509826402
 20
1.166512624104622
 30
0.0
 11
-6.694647135287585
 21
-8.87148960229433
 31
0.0
  0
LINE
  5
39E
330
1F
100
AcDbEntity
  8
0
100
AcDbLine
 10
-14.00228234365536
 20
-44.97785147389023
 30
0.0
 11
-13.98887327351204
 21
-34.90254410842608
 31
0.0
  0
LINE
  5
39F
330
1F
100
AcDbEntity
  8
0
100
AcDbLine
 10
-6.694647135287585
 20
-8.87148960229433
 30
0.0
 11
-13.95422303258923
 21
-8.867045460618844
 31
0.0
  0
LINE
  5
3A0
330
1F
100
AcDbEntity
  8
0
100
AcDbLine
 10
-12.28269829969913
 20
-21.35713938426898
 30
0.0
 11
-12.3518180641635
 21
-21.87766266254289
 31
0.0
  0
LINE
  5
3A1
330
1F
100
AcDbEntity
  8
0
100
AcDbLine
 10
-12.0812060465852
 20
-20.87217833239186
 30
0.0
 11
-12.28269829969913
 21
-21.35713938426898
 31
0.0
  0
LINE
  5
3A2
330
1F
100
AcDbEntity
  8
0
100
AcDbLine
 10
-11.7610802598482
 20
-20.45582119047253
 30
0.0
 11
-12.0812060465852
 21
-20.87217833239186
 31
0.0
  0
LINE
  5
3A3
330
1F
100
AcDbEntity
  8
0
100
AcDbLine
 10
-11.34413974887864
 20
-20.13643162234292
 30
0.0
 11
-11.7610802598482
 21
-20.45582119047253
 31
0.0
  0
LINE
  5
3A4
330
1F
100
AcDbEntity
  8
0
100
AcDbLine
 10
-10.85879552108979
 20
-19.93576511830486
 30
0.0
 11
-11.34413974887864
 21
-20.13643162234292
 31
0.0
  0
LINE
  5
3A5
330
1F
100
AcDbEntity
  8
0
100
AcDbLine
 10
-10.33811536906398
 20
-19.86748917536041
 30
0.0
 11
-10.85879552108979
 21
-19.93576511830486
 31
0.0
  0
LINE
  5
3A6
330
1F
100
AcDbEntity
  8
0
100
AcDbLine
 10
-13.94086361738164
 20
1.170952178343818
 30
0.0
 11
-6.685035509826402
 21
1.166512624104622
 31
0.0
  0
LINE
  5
3A7
330
1F
100
AcDbEntity
  8
0
100
AcDbLine
 10
-13.95422303258923
 20
-8.867045460618844
 30
0.0
 11
-13.94086361738164
 21
1.170952178343818
 31
0.0
  0
LINE
  5
3A8
330
1F
100
AcDbEntity
  8
0
100
AcDbLine
 10
-12.3518180641635
 20
-21.87766266254289
 30
0.0
 11
-12.28384455976133
 21
-22.39827816051836
 31
0.0
  0
LINE
  5
3A9
330
1F
100
AcDbEntity
  8
0
100
AcDbLine
 10
-10.86278934986743
 20
-23.82134823169458
 30
0.0
 11
-10.34214243933896
 21
-23.89014092361317
 31
0.0
  0
LINE
  5
3AA
330
1F
100
AcDbEntity
  8
0
100
AcDbLine
 10
-11.3478073885075
 20
-23.6201500484954
 30
0.0
 11
-10.86278934986743
 21
-23.82134823169458
 31
0.0
  0
LINE
  5
3AB
330
1F
100
AcDbEntity
  8
0
100
AcDbLine
 10
-11.76413578371782
 20
-23.30026530954985
 30
0.0
 11
-11.3478073885075
 21
-23.6201500484954
 31
0.0
  0
LINE
  5
3AC
330
1F
100
AcDbEntity
  8
0
100
AcDbLine
 10
-12.08339967617644
 20
-22.88350402129297
 30
0.0
 11
-11.76413578371782
 21
-23.30026530954985
 31
0.0
  0
LINE
  5
3AD
330
1F
100
AcDbEntity
  8
0
100
AcDbLine
 10
-12.28384455976133
 20
-22.39827816051836
 30
0.0
 11
-12.08339967617644
 21
-22.88350402129297
 31
0.0
  0
LINE
  5
3AE
330
1F
100
AcDbEntity
  8
0
100
AcDbLine
 10
-8.328439132645844
 20
-21.87955160110184
 30
0.0
 11
-8.396516655616226
 21
-21.35896386117818
 31
0.0
  0
LINE
  5
3AF
330
1F
100
AcDbEntity
  8
0
100
AcDbLine
 10
-9.817572395166684
 20
-19.93625391396051
 30
0.0
 11
-10.33811536906398
 21
-19.86748917536041
 31
0.0
  0
LINE
  5
3B0
330
1F
100
AcDbEntity
  8
0
100
AcDbLine
 10
-9.332630361483034
 20
-20.13737592253959
 30
0.0
 11
-9.817572395166684
 21
-19.93625391396051
 31
0.0
  0
LINE
  5
3B1
330
1F
100
AcDbEntity
  8
0
100
AcDbLine
 10
-8.916329674087711
 20
-20.45715667649207
 30
0.0
 11
-9.332630361483034
 21
-20.13737592253959
 31
0.0
  0
LINE
  5
3B2
330
1F
100
AcDbEntity
  8
0
100
AcDbLine
 10
-8.396516655616226
 20
-21.35896386117818
 30
0.0
 11
-8.59703776801634
 21
-20.87381403207771
 31
0.0
  0
LINE
  5
3B3
330
1F
100
AcDbEntity
  8
0
100
AcDbLine
 10
-8.397454960480008
 20
-22.40010283269364
 30
0.0
 11
-8.328439132645844
 21
-21.87955160110184
 31
0.0
  0
LINE
  5
3B4
330
1F
100
AcDbEntity
  8
0
100
AcDbLine
 10
-8.598871208637512
 20
-22.88514005918965
 30
0.0
 11
-8.397454960480008
 21
-22.40010283269364
 31
0.0
  0
LINE
  5
3B5
330
1F
100
AcDbEntity
  8
0
100
AcDbLine
 10
-9.335937812139905
 20
-23.621094686903
 30
0.0
 11
-8.918969287558552
 21
-23.30160118610171
 31
0.0
  0
LINE
  5
3B6
330
1F
100
AcDbEntity
  8
0
100
AcDbLine
 10
-9.821358268743966
 20
-23.82183722261644
 30
0.0
 11
-9.335937812139905
 21
-23.621094686903
 31
0.0
  0
LINE
  5
3B7
330
1F
100
AcDbEntity
  8
0
100
AcDbLine
 10
-10.34214243933896
 20
-23.89014092361317
 30
0.0
 11
-9.821358268743966
 21
-23.82183722261644
 31
0.0
  0
LINE
  5
3B8
330
1F
100
AcDbEntity
  8
0
100
AcDbLine
 10
-13.98887327351204
 20
-34.90254410842608
 30
0.0
 11
-6.719576754799816
 21
-34.90700015954976
 31
0.0
  0
LINE
  5
3B9
330
1F
100
AcDbEntity
  8
0
100
AcDbLine
 10
-12.38601424792383
 20
-267.9218269267158
 30
0.0
 11
-12.59007279659702
 21
-268.4191823438983
 31
0.0
  0
LINE
  5
3BA
330
1F
100
AcDbEntity
  8
0
100
AcDbLine
 10
-11.63957741107173
 20
-267.1672770118994
 30
0.0
 11
-12.06181700511227
 21
-267.4948290113125
 31
0.0
  0
LINE
  5
3BB
330
1F
100
AcDbEntity
  8
0
100
AcDbLine
 10
-14.26890882617357
 20
-245.3156627042744
 30
0.0
 11
-6.921052404354476
 21
-245.3202155897467
 31
0.0
  0
LINE
  5
3BC
330
1F
100
AcDbEntity
  8
0
100
AcDbLine
 10
-14.28260936511033
 20
-255.6099738969975
 30
0.0
 11
-14.26890882617357
 21
-245.3156627042744
 31
0.0
  0
LINE
  5
3BD
330
1F
100
AcDbEntity
  8
0
100
AcDbLine
 10
-9.18365705897123
 20
-270.413342782746
 30
0.0
 11
-8.859488230595405
 21
-269.9862368704395
 31
0.0
  0
LINE
  5
3BE
330
1F
100
AcDbEntity
  8
0
100
AcDbLine
 10
-8.585608404155627
 20
-268.9549464343633
 30
0.0
 11
-8.654543425230324
 21
-268.4210534503698
 31
0.0
  0
LINE
  5
3BF
330
1F
100
AcDbEntity
  8
0
100
AcDbLine
 10
-6.921052404354476
 20
-245.3202155897467
 30
0.0
 11
-6.930909456298274
 21
-255.6145315467287
 31
0.0
  0
LINE
  5
3C0
330
1F
100
AcDbEntity
  8
0
100
AcDbLine
 10
-10.62077512493726
 20
-266.8914614837762
 30
0.0
 11
-11.14806752525644
 21
-266.9614822744931
 31
0.0
  0
LINE
  5
3C1
330
1F
100
AcDbEntity
  8
0
100
AcDbLine
 10
-11.14806752525644
 20
-266.9614822744931
 30
0.0
 11
-11.63957741107173
 21
-267.1672770118994
 31
0.0
  0
LINE
  5
3C2
330
1F
100
AcDbEntity
  8
0
100
AcDbLine
 10
-12.66007861342976
 20
-268.9530092174296
 30
0.0
 11
-12.59125026989211
 21
-269.4869310304258
 31
0.0
  0
LINE
  5
3C3
330
1F
100
AcDbEntity
  8
0
100
AcDbLine
 10
-12.06181700511227
 20
-267.4948290113125
 30
0.0
 11
-12.38601424792383
 21
-267.9218269267158
 31
0.0
  0
LINE
  5
3C4
330
1F
100
AcDbEntity
  8
0
100
AcDbLine
 10
-8.65550762831373
 20
-269.488802339697
 30
0.0
 11
-8.585608404155627
 21
-268.9549464343633
 31
0.0
  0
LINE
  5
3C5
330
1F
100
AcDbEntity
  8
0
100
AcDbLine
 10
-8.859488230595405
 20
-269.9862368704395
 30
0.0
 11
-8.65550762831373
 21
-269.488802339697
 31
0.0
  0
LINE
  5
3C6
330
1F
100
AcDbEntity
  8
0
100
AcDbLine
 10
-9.605925384157317
 20
-270.7410027247229
 30
0.0
 11
-9.18365705897123
 21
-270.413342782746
 31
0.0
  0
LINE
  5
3C7
330
1F
100
AcDbEntity
  8
0
100
AcDbLine
 10
-10.09751344821252
 20
-270.9468764272306
 30
0.0
 11
-9.605925384157317
 21
-270.7410027247229
 31
0.0
  0
LINE
  5
3C8
330
1F
100
AcDbEntity
  8
0
100
AcDbLine
 10
-10.62491252606976
 20
-271.0169260469507
 30
0.0
 11
-10.09751344821252
 21
-270.9468764272306
 31
0.0
  0
LINE
  5
3C9
330
1F
100
AcDbEntity
  8
0
100
AcDbLine
 10
-11.15217058296523
 20
-270.9463749371783
 30
0.0
 11
-10.62491252606976
 21
-271.0169260469507
 31
0.0
  0
LINE
  5
3CA
330
1F
100
AcDbEntity
  8
0
100
AcDbLine
 10
-11.64334520296177
 20
-270.7400339406026
 30
0.0
 11
-11.15217058296523
 21
-270.9463749371783
 31
0.0
  0
LINE
  5
3CB
330
1F
100
AcDbEntity
  8
0
100
AcDbLine
 10
-12.06495585969137
 20
-270.4119727606933
 30
0.0
 11
-11.64334520296177
 21
-270.7400339406026
 31
0.0
  0
LINE
  5
3CC
330
1F
100
AcDbEntity
  8
0
100
AcDbLine
 10
-12.38826764587892
 20
-269.9845590157189
 30
0.0
 11
-12.06495585969137
 21
-270.4119727606933
 31
0.0
  0
LINE
  5
3CD
330
1F
100
AcDbEntity
  8
0
100
AcDbLine
 10
-12.59125026989211
 20
-269.4869310304258
 30
0.0
 11
-12.38826764587892
 21
-269.9845590157189
 31
0.0
  0
LINE
  5
3CE
330
1F
100
AcDbEntity
  8
0
100
AcDbLine
 10
-10.09362366071745
 20
-266.9619835617455
 30
0.0
 11
-10.62077512493726
 21
-266.8914614837762
 31
0.0
  0
LINE
  5
3CF
330
1F
100
AcDbEntity
  8
0
100
AcDbLine
 10
-9.602526987112418
 20
-267.1682454447603
 30
0.0
 11
-10.09362366071745
 21
-266.9619835617455
 31
0.0
  0
LINE
  5
3D0
330
1F
100
AcDbEntity
  8
0
100
AcDbLine
 10
-9.180944744817541
 20
-267.4961986277656
 30
0.0
 11
-9.602526987112418
 21
-267.1682454447603
 31
0.0
  0
LINE
  5
3D1
330
1F
100
AcDbEntity
  8
0
100
AcDbLine
 10
-8.857604227483446
 20
-267.9235044301769
 30
0.0
 11
-9.180944744817541
 21
-267.4961986277656
 31
0.0
  0
LINE
  5
3D2
330
1F
100
AcDbEntity
  8
0
100
AcDbLine
 10
-8.654543425230324
 20
-268.4210534503698
 30
0.0
 11
-8.857604227483446
 21
-267.9235044301769
 31
0.0
  0
LINE
  5
3D3
330
1F
100
AcDbEntity
  8
0
100
AcDbLine
 10
-6.930909456298274
 20
-255.6145315467287
 30
0.0
 11
-14.28260936511033
 21
-255.6099738969975
 31
0.0
  0
LINE
  5
3D4
330
1F
100
AcDbEntity
  8
0
100
AcDbLine
 10
-12.59007279659702
 20
-268.4191823438983
 30
0.0
 11
-12.66007861342976
 21
-268.9530092174296
 31
0.0
  0
LINE
  5
3D5
330
1F
100
AcDbEntity
  8
0
100
AcDbLine
 10
192.4023561309327
 20
-283.7543174246151
 30
0.0
 11
192.0211753313245
 21
-284.556073766323
 31
0.0
  0
LINE
  5
3D6
330
1F
100
AcDbEntity
  8
0
100
AcDbLine
 10
199.941703747053
 20
-283.7589980557985
 30
0.0
 11
199.3756235732035
 21
-283.0546337427119
 31
0.0
  0
LINE
  5
3D7
330
1F
100
AcDbEntity
  8
0
100
AcDbLine
 10
192.9552796381392
 20
-283.0506479616271
 30
0.0
 11
192.4023561309327
 21
-283.7543174246151
 31
0.0
  0
LINE
  5
3D8
330
1F
100
AcDbEntity
  8
0
100
AcDbLine
 10
195.3591694282049
 20
-290.7283773876449
 30
0.0
 11
196.2379954662886
 21
-290.8165049649584
 31
0.0
  0
LINE
  5
3D9
330
1F
100
AcDbEntity
  8
0
100
AcDbLine
 10
197.115184845722
 20
-290.7294679550434
 30
0.0
 11
197.9570604989933
 21
-290.4706101751549
 31
0.0
  0
LINE
  5
3DA
330
1F
100
AcDbEntity
  8
0
100
AcDbLine
 10
195.2660113955753
 20
-281.7784687055034
 30
0.0
 11
194.4157593111678
 21
-282.0429708925947
 31
0.0
  0
LINE
  5
3DB
330
1F
100
AcDbEntity
  8
0
100
AcDbLine
 10
192.0526285073316
 20
-287.999996068497
 30
0.0
 11
188.5079761161524
 21
-287.9977949784525
 31
0.0
  0
LINE
  5
3DC
330
1F
100
AcDbEntity
  8
0
100
AcDbLine
 10
188.5079761161524
 20
-287.9977949784525
 30
0.0
 11
188.4771418910706
 21
-284.5538734448959
 31
0.0
  0
LINE
  5
3DD
330
1F
100
AcDbEntity
  8
0
100
AcDbLine
 10
193.6353092875254
 20
-282.4726452044779
 30
0.0
 11
192.9552796381392
 21
-283.0506479616271
 31
0.0
  0
LINE
  5
3DE
330
1F
100
AcDbEntity
  8
0
100
AcDbLine
 10
203.8819082804659
 20
-284.5634375300381
 30
0.0
 11
203.9154328859092
 21
-288.0073624045252
 31
0.0
  0
LINE
  5
3DF
330
1F
100
AcDbEntity
  8
0
100
AcDbLine
 10
193.0428454678073
 20
-289.4794739051676
 30
0.0
 11
193.7303320821546
 21
-290.0467702655853
 31
0.0
  0
LINE
  5
3E0
330
1F
100
AcDbEntity
  8
0
100
AcDbLine
 10
197.0410902302073
 20
-281.7795706119944
 30
0.0
 11
196.1527143911691
 21
-281.6895063223301
 31
0.0
  0
LINE
  5
3E1
330
1F
100
AcDbEntity
  8
0
100
AcDbLine
 10
199.3756235732035
 20
-283.0546337427119
 30
0.0
 11
198.6847842106004
 21
-282.4757798513824
 31
0.0
  0
LINE
  5
3E2
330
1F
100
AcDbEntity
  8
0
100
AcDbLine
 10
192.0526285073316
 20
-287.999996068497
 30
0.0
 11
192.4763678296975
 21
-288.7883698354913
 31
0.0
  0
LINE
  5
3E3
330
1F
100
AcDbEntity
  8
0
100
AcDbLine
 10
196.1527143911691
 20
-281.6895063223301
 30
0.0
 11
195.2660113955753
 21
-281.7784687055034
 31
0.0
  0
LINE
  5
3E4
330
1F
100
AcDbEntity
  8
0
100
AcDbLine
 10
203.9154328859092
 20
-288.0073624045252
 30
0.0
 11
200.3707778469493
 21
-288.0051613128364
 31
0.0
  0
LINE
  5
3E5
330
1F
100
AcDbEntity
  8
0
100
AcDbLine
 10
193.7303320821546
 20
-290.0467702655853
 30
0.0
 11
194.5124466711637
 21
-290.4684709375911
 31
0.0
  0
LINE
  5
3E6
330
1F
100
AcDbEntity
  8
0
100
AcDbLine
 10
198.7313037313606
 20
-290.0498759948463
 30
0.0
 11
199.4081970704679
 21
-289.4834268351144
 31
0.0
  0
LINE
  5
3E7
330
1F
100
AcDbEntity
  8
0
100
AcDbLine
 10
197.9570604989933
 20
-290.4706101751549
 30
0.0
 11
198.7313037313606
 21
-290.0498759948463
 31
0.0
  0
LINE
  5
3E8
330
1F
100
AcDbEntity
  8
0
100
AcDbLine
 10
199.4081970704679
 20
-289.4834268351144
 30
0.0
 11
199.9617663399177
 21
-288.7930181599772
 31
0.0
  0
LINE
  5
3E9
330
1F
100
AcDbEntity
  8
0
100
AcDbLine
 10
199.9617663399177
 20
-288.7930181599772
 30
0.0
 11
200.3707778469493
 21
-288.0051613128364
 31
0.0
  0
LINE
  5
3EA
330
1F
100
AcDbEntity
  8
0
100
AcDbLine
 10
200.3378721933557
 20
-284.5612372069673
 30
0.0
 11
199.941703747053
 21
-283.7589980557985
 31
0.0
  0
LINE
  5
3EB
330
1F
100
AcDbEntity
  8
0
100
AcDbLine
 10
188.4771418910706
 20
-284.5538734448959
 30
0.0
 11
192.0211753313245
 21
-284.556073766323
 31
0.0
  0
LINE
  5
3EC
330
1F
100
AcDbEntity
  8
0
100
AcDbLine
 10
194.4157593111678
 20
-282.0429708925947
 30
0.0
 11
193.6353092875254
 21
-282.4726452044779
 31
0.0
  0
LINE
  5
3ED
330
1F
100
AcDbEntity
  8
0
100
AcDbLine
 10
198.6847842106004
 20
-282.4757798513824
 30
0.0
 11
197.8962952723024
 21
-282.0451315159115
 31
0.0
  0
LINE
  5
3EE
330
1F
100
AcDbEntity
  8
0
100
AcDbLine
 10
192.4763678296975
 20
-288.7883698354913
 30
0.0
 11
193.0428454678073
 21
-289.4794739051676
 31
0.0
  0
LINE
  5
3EF
330
1F
100
AcDbEntity
  8
0
100
AcDbLine
 10
200.3378721933557
 20
-284.5612372069673
 30
0.0
 11
203.8819082804659
 21
-284.5634375300381
 31
0.0
  0
LINE
  5
3F0
330
1F
100
AcDbEntity
  8
0
100
AcDbLine
 10
196.2379954662886
 20
-290.8165049649584
 30
0.0
 11
197.115184845722
 21
-290.7294679550434
 31
0.0
  0
LINE
  5
3F1
330
1F
100
AcDbEntity
  8
0
100
AcDbLine
 10
197.8962952723024
 20
-282.0451315159115
 30
0.0
 11
197.0410902302073
 21
-281.7795706119944
 31
0.0
  0
LINE
  5
3F2
330
1F
100
AcDbEntity
  8
0
100
AcDbLine
 10
194.5124466711637
 20
-290.4684709375911
 30
0.0
 11
195.3591694282049
 21
-290.7283773876449
 31
0.0
  0
LINE
  5
3F3
330
1F
100
AcDbEntity
  8
0
100
AcDbLine
 10
-199.5864722771884
 20
-140.6887651330088
 30
0.0
 11
-199.9036151119631
 21
-140.266960238881
 31
0.0
  0
LINE
  5
3F4
330
1F
100
AcDbEntity
  8
0
100
AcDbLine
 10
-201.2790919099189
 20
-267.3770364688851
 30
0.0
 11
-201.6974740997448
 21
-267.0490872528031
 31
0.0
  0
LINE
  5
3F5
330
1F
100
AcDbEntity
  8
0
100
AcDbLine
 10
-201.4813873577379
 20
-23.18403866559763
 30
0.0
 11
-201.0681802859833
 21
-23.50391958310921
 31
0.0
  0
LINE
  5
3F6
330
1F
100
AcDbEntity
  8
0
100
AcDbLine
 10
-197.5538270371152
 20
-128.538204121489
 30
0.0
 11
-204.8580378480582
 21
-128.5337051088462
 31
0.0
  0
LINE
  5
3F7
330
1F
100
AcDbEntity
  8
0
100
AcDbLine
 10
-201.8952919364285
 20
-143.672717433998
 30
0.0
 11
-201.3721177474914
 21
-143.7423601568383
 31
0.0
  0
LINE
  5
3F8
330
1F
100
AcDbEntity
  8
0
100
AcDbLine
 10
-196.1637693232823
 20
1.282447167133814
 30
0.0
 11
-196.2712501883406
 21
-8.755435263273338
 31
0.0
  0
LINE
  5
3F9
330
1F
100
AcDbEntity
  8
0
100
AcDbLine
 10
-204.1915140146873
 20
-270.292775329691
 30
0.0
 11
-203.7731044637204
 21
-270.6208325407172
 31
0.0
  0
LINE
  5
3FA
330
1F
100
AcDbEntity
  8
0
100
AcDbLine
 10
-198.312094268884
 20
-22.76891837434798
 30
0.0
 11
-198.1059501703133
 21
-22.28388694200106
 31
0.0
  0
LINE
  5
3FB
330
1F
100
AcDbEntity
  8
0
100
AcDbLine
 10
-204.7454349789774
 20
-118.3718025342346
 30
0.0
 11
-197.4450181733784
 21
-118.3762968742414
 31
0.0
  0
LINE
  5
3FC
330
1F
100
AcDbEntity
  8
0
100
AcDbLine
 10
-200.0651537216172
 20
-23.77390723279037
 30
0.0
 11
-199.543706709141
 21
-23.70560434778554
 31
0.0
  0
LINE
  5
3FD
330
1F
100
AcDbEntity
  8
0
100
AcDbLine
 10
-201.3721177474914
 20
-143.7423601568383
 30
0.0
 11
-200.8474512743076
 21
-143.6732124670828
 31
0.0
  0
LINE
  5
3FE
330
1F
100
AcDbEntity
  8
0
100
AcDbLine
 10
-200.7617109937016
 20
-268.3018801040851
 30
0.0
 11
-200.9599195266492
 21
-267.8043371025042
 31
0.0
  0
LINE
  5
3FF
330
1F
100
AcDbEntity
  8
0
100
AcDbLine
 10
-206.2648364801566
 20
-255.4909554717786
 30
0.0
 11
-206.1507677850778
 21
-245.1967686924804
 31
0.0
  0
LINE
  5
400
330
1F
100
AcDbEntity
  8
0
100
AcDbLine
 10
-198.913225444646
 20
-255.4955130664133
 30
0.0
 11
-206.2648364801566
 21
-255.4909554717786
 31
0.0
  0
LINE
  5
401
330
1F
100
AcDbEntity
  8
0
100
AcDbLine
 10
-206.1507677850778
 20
-245.1967686924804
 30
0.0
 11
-198.8030001436586
 21
-245.2013215229426
 31
0.0
  0
LINE
  5
402
330
1F
100
AcDbEntity
  8
0
100
AcDbLine
 10
-204.5106566147379
 20
-269.8653667554675
 30
0.0
 11
-204.1915140146873
 21
-270.292775329691
 31
0.0
  0
LINE
  5
403
330
1F
100
AcDbEntity
  8
0
100
AcDbLine
 10
-204.1599333929045
 20
-267.375666868999
 30
0.0
 11
-204.4882918511035
 21
-267.8026596193348
 31
0.0
  0
LINE
  5
404
330
1F
100
AcDbEntity
  8
0
100
AcDbLine
 10
-204.6971983185359
 20
-268.3000090202477
 30
0.0
 11
-204.7724084570078
 21
-268.8338294361629
 31
0.0
  0
LINE
  5
405
330
1F
100
AcDbEntity
  8
0
100
AcDbLine
 10
-203.7345027615841
 20
-267.0481188316563
 30
0.0
 11
-204.1599333929045
 21
-267.375666868999
 31
0.0
  0
LINE
  5
406
330
1F
100
AcDbEntity
  8
0
100
AcDbLine
 10
-204.4882918511035
 20
-267.8026596193348
 30
0.0
 11
-204.6971983185359
 21
-268.3000090202477
 31
0.0
  0
LINE
  5
407
330
1F
100
AcDbEntity
  8
0
100
AcDbLine
 10
-200.5851268019134
 20
-23.70511536270553
 30
0.0
 11
-200.0651537216172
 21
-23.77390723279037
 31
0.0
  0
LINE
  5
408
330
1F
100
AcDbEntity
  8
0
100
AcDbLine
 10
-201.0681802859833
 20
-23.50391958310921
 30
0.0
 11
-200.5851268019134
 21
-23.70511536270553
 31
0.0
  0
LINE
  5
409
330
1F
100
AcDbEntity
  8
0
100
AcDbLine
 10
-204.8580378480582
 20
-128.5337051088462
 30
0.0
 11
-204.7454349789774
 21
-118.3718025342346
 31
0.0
  0
LINE
  5
40A
330
1F
100
AcDbEntity
  8
0
100
AcDbLine
 10
-199.9343658448641
 20
-143.146548277205
 30
0.0
 11
-199.6081828729274
 21
-142.7249413880326
 31
0.0
  0
LINE
  5
40B
330
1F
100
AcDbEntity
  8
0
100
AcDbLine
 10
-199.3895080884508
 20
-141.1799088221085
 30
0.0
 11
-199.5864722771884
 21
-140.6887651330088
 31
0.0
  0
LINE
  5
40C
330
1F
100
AcDbEntity
  8
0
100
AcDbLine
 10
-201.9922987665049
 20
-22.28206229162265
 30
0.0
 11
-201.7965859722252
 21
-22.7672823559952
 31
0.0
  0
LINE
  5
40D
330
1F
100
AcDbEntity
  8
0
100
AcDbLine
 10
-200.8052626738664
 20
-139.7396222081213
 30
0.0
 11
-201.3283319198309
 21
-139.6700079582473
 31
0.0
  0
LINE
  5
40E
330
1F
100
AcDbEntity
  8
0
100
AcDbLine
 10
-199.3261531125869
 20
-141.7069284130564
 30
0.0
 11
-199.3895080884508
 21
-141.1799088221085
 31
0.0
  0
LINE
  5
40F
330
1F
100
AcDbEntity
  8
0
100
AcDbLine
 10
-202.797042701994
 20
-143.1451958944856
 30
0.0
 11
-202.3813098988874
 21
-143.4690331803326
 31
0.0
  0
LINE
  5
410
330
1F
100
AcDbEntity
  8
0
100
AcDbLine
 10
-202.3813098988874
 20
-143.4690331803326
 30
0.0
 11
-201.8952919364285
 21
-143.672717433998
 31
0.0
  0
LINE
  5
411
330
1F
100
AcDbEntity
  8
0
100
AcDbLine
 10
-200.3193208983635
 20
-139.9432288710922
 30
0.0
 11
-200.8052626738664
 21
-139.7396222081213
 31
0.0
  0
LINE
  5
412
330
1F
100
AcDbEntity
  8
0
100
AcDbLine
 10
-203.5307394257156
 20
-8.75099117464902
 30
0.0
 11
-203.4195108603645
 21
1.286886668403961
 31
0.0
  0
LINE
  5
413
330
1F
100
AcDbEntity
  8
0
100
AcDbLine
 10
-199.4007354331433
 20
-142.2339112182786
 30
0.0
 11
-199.3261531125869
 21
-141.7069284130564
 31
0.0
  0
LINE
  5
414
330
1F
100
AcDbEntity
  8
0
100
AcDbLine
 10
-199.6081828729274
 20
-142.7249413880326
 30
0.0
 11
-199.4007354331433
 21
-142.2339112182786
 31
0.0
  0
LINE
  5
415
330
1F
100
AcDbEntity
  8
0
100
AcDbLine
 10
-200.3570582194327
 20
-143.4699894909403
 30
0.0
 11
-199.9343658448641
 21
-143.146548277205
 31
0.0
  0
LINE
  5
416
330
1F
100
AcDbEntity
  8
0
100
AcDbLine
 10
-200.8474512743076
 20
-143.6732124670828
 30
0.0
 11
-200.3570582194327
 21
-143.4699894909403
 31
0.0
  0
LINE
  5
417
330
1F
100
AcDbEntity
  8
0
100
AcDbLine
 10
-202.7658709239418
 20
-140.2656082539538
 30
0.0
 11
-203.0920809125855
 21
-140.6871092250685
 31
0.0
  0
LINE
  5
418
330
1F
100
AcDbEntity
  8
0
100
AcDbLine
 10
-203.2839446138002
 20
-270.8271710409466
 30
0.0
 11
-202.7573776108715
 21
-270.8977212971744
 31
0.0
  0
LINE
  5
419
330
1F
100
AcDbEntity
  8
0
100
AcDbLine
 10
-201.7965859722252
 20
-22.7672823559952
 30
0.0
 11
-201.4813873577379
 21
-23.18403866559763
 31
0.0
  0
LINE
  5
41A
330
1F
100
AcDbEntity
  8
0
100
AcDbLine
 10
-203.4195108603645
 20
1.286886668403961
 30
0.0
 11
-196.1637693232823
 21
1.282447167133814
 31
0.0
  0
LINE
  5
41B
330
1F
100
AcDbEntity
  8
0
100
AcDbLine
 10
-199.9036151119631
 20
-140.266960238881
 30
0.0
 11
-200.3193208983635
 21
-139.9432288710922
 31
0.0
  0
LINE
  5
41C
330
1F
100
AcDbEntity
  8
0
100
AcDbLine
 10
-198.6362508807059
 20
-23.18537452619089
 30
0.0
 11
-198.312094268884
 21
-22.76891837434798
 31
0.0
  0
LINE
  5
41D
330
1F
100
AcDbEntity
  8
0
100
AcDbLine
 10
-201.0305468440154
 20
-20.02024277106375
 30
0.0
 11
-201.4505988737494
 21
-20.3396285242952
 31
0.0
  0
LINE
  5
41E
330
1F
100
AcDbEntity
  8
0
100
AcDbLine
 10
-201.7747821792212
 20
-20.75598069300844
 30
0.0
 11
-201.9810015391519
 21
-21.24093595210161
 31
0.0
  0
LINE
  5
41F
330
1F
100
AcDbEntity
  8
0
100
AcDbLine
 10
-201.9810015391519
 20
-21.24093595210161
 30
0.0
 11
-202.0551959282905
 21
-21.76145301264525
 31
0.0
  0
LINE
  5
420
330
1F
100
AcDbEntity
  8
0
100
AcDbLine
 10
-196.2712501883406
 20
-8.755435263273338
 30
0.0
 11
-203.5307394257156
 21
-8.75099117464902
 31
0.0
  0
LINE
  5
421
330
1F
100
AcDbEntity
  8
0
100
AcDbLine
 10
-203.1141561441208
 20
-142.7232851355943
 30
0.0
 11
-202.797042701994
 21
-143.1451958944856
 31
0.0
  0
LINE
  5
422
330
1F
100
AcDbEntity
  8
0
100
AcDbLine
 10
-199.5020368991559
 20
-19.82006745364032
 30
0.0
 11
-200.0219063166022
 21
-19.75130353637311
 31
0.0
  0
LINE
  5
423
330
1F
100
AcDbEntity
  8
0
100
AcDbLine
 10
-202.3432079420201
 20
-139.9422729049827
 30
0.0
 11
-202.7658709239418
 21
-140.2656082539538
 31
0.0
  0
LINE
  5
424
330
1F
100
AcDbEntity
  8
0
100
AcDbLine
 10
-199.0190586764456
 20
-20.02118705998144
 30
0.0
 11
-199.5020368991559
 21
-19.82006745364032
 31
0.0
  0
LINE
  5
425
330
1F
100
AcDbEntity
  8
0
100
AcDbLine
 10
-202.7573776108715
 20
-270.8977212971744
 30
0.0
 11
-202.2292987482713
 21
-270.8276725249317
 31
0.0
  0
LINE
  5
426
330
1F
100
AcDbEntity
  8
0
100
AcDbLine
 10
-202.2292987482713
 20
-270.8276725249317
 30
0.0
 11
-201.7357064149293
 21
-270.6218013131173
 31
0.0
  0
LINE
  5
427
330
1F
100
AcDbEntity
  8
0
100
AcDbLine
 10
-201.7357064149293
 20
-270.6218013131173
 30
0.0
 11
-201.3102460003907
 21
-270.2941453351694
 31
0.0
  0
LINE
  5
428
330
1F
100
AcDbEntity
  8
0
100
AcDbLine
 10
-200.9819149033338
 20
-269.86704458989
 30
0.0
 11
-200.7730856100074
 21
-269.3696160768528
 31
0.0
  0
LINE
  5
429
330
1F
100
AcDbEntity
  8
0
100
AcDbLine
 10
-200.7730856100074
 20
-269.3696160768528
 30
0.0
 11
-200.6979817798659
 21
-268.835766629662
 31
0.0
  0
LINE
  5
42A
330
1F
100
AcDbEntity
  8
0
100
AcDbLine
 10
-198.29065065725
 20
-20.75761637315643
 30
0.0
 11
-198.6058782983402
 21
-20.34096399436311
 31
0.0
  0
LINE
  5
42B
330
1F
100
AcDbEntity
  8
0
100
AcDbLine
 10
-203.0920809125855
 20
-140.6871092250685
 30
0.0
 11
-203.2996045393258
 21
-141.1780618041294
 31
0.0
  0
LINE
  5
42C
330
1F
100
AcDbEntity
  8
0
100
AcDbLine
 10
-200.5432490411156
 20
-19.81957866382293
 30
0.0
 11
-201.0305468440154
 21
-20.02024277106375
 31
0.0
  0
LINE
  5
42D
330
1F
100
AcDbEntity
  8
0
100
AcDbLine
 10
-200.0219063166022
 20
-19.75130353637311
 30
0.0
 11
-200.5432490411156
 21
-19.81957866382293
 31
0.0
  0
LINE
  5
42E
330
1F
100
AcDbEntity
  8
0
100
AcDbLine
 10
-202.0551959282905
 20
-21.76145301264525
 30
0.0
 11
-201.9922987665049
 21
-22.28206229162265
 31
0.0
  0
LINE
  5
42F
330
1F
100
AcDbEntity
  8
0
100
AcDbLine
 10
-205.2631225974754
 20
-165.0907821321894
 30
0.0
 11
-205.150098618112
 21
-154.8908762482517
 31
0.0
  0
LINE
  5
430
330
1F
100
AcDbEntity
  8
0
100
AcDbLine
 10
-203.311042406593
 20
-142.2320640014033
 30
0.0
 11
-203.1141561441208
 21
-142.7232851355943
 31
0.0
  0
LINE
  5
431
330
1F
100
AcDbEntity
  8
0
100
AcDbLine
 10
-202.1865567755592
 20
-266.8428278646993
 30
0.0
 11
-202.7130174701564
 21
-266.7723066397479
 31
0.0
  0
LINE
  5
432
330
1F
100
AcDbEntity
  8
0
100
AcDbLine
 10
-198.6058782983402
 20
-20.34096399436311
 30
0.0
 11
-199.0190586764456
 21
-20.02118705998144
 31
0.0
  0
LINE
  5
433
330
1F
100
AcDbEntity
  8
0
100
AcDbLine
 10
-198.0948608937708
 20
-21.24276040721728
 30
0.0
 11
-198.29065065725
 21
-20.75761637315643
 31
0.0
  0
LINE
  5
434
330
1F
100
AcDbEntity
  8
0
100
AcDbLine
 10
-203.3742918028538
 20
-141.7050161363858
 30
0.0
 11
-203.311042406593
 21
-142.2320640014033
 31
0.0
  0
LINE
  5
435
330
1F
100
AcDbEntity
  8
0
100
AcDbLine
 10
-197.4450181733784
 20
-118.3762968742414
 30
0.0
 11
-197.5538270371152
 21
-128.538204121489
 31
0.0
  0
LINE
  5
436
330
1F
100
AcDbEntity
  8
0
100
AcDbLine
 10
-196.5500227072969
 20
-34.7906348180309
 30
0.0
 11
-196.6579030602558
 21
-44.86582633202554
 31
0.0
  0
LINE
  5
437
330
1F
100
AcDbEntity
  8
0
100
AcDbLine
 10
-198.0318594440236
 20
-21.76334192864034
 30
0.0
 11
-198.0948608937708
 21
-21.24276040721728
 31
0.0
  0
LINE
  5
438
330
1F
100
AcDbEntity
  8
0
100
AcDbLine
 10
-201.4505988737494
 20
-20.3396285242952
 30
0.0
 11
-201.7747821792212
 21
-20.75598069300844
 31
0.0
  0
LINE
  5
439
330
1F
100
AcDbEntity
  8
0
100
AcDbLine
 10
-198.1059501703133
 20
-22.28388694200106
 30
0.0
 11
-198.0318594440236
 21
-21.76334192864034
 31
0.0
  0
LINE
  5
43A
330
1F
100
AcDbEntity
  8
0
100
AcDbLine
 10
-201.8528928134107
 20
-139.7391273739324
 30
0.0
 11
-202.3432079420201
 21
-139.9422729049827
 31
0.0
  0
LINE
  5
43B
330
1F
100
AcDbEntity
  8
0
100
AcDbLine
 10
-199.0563319370415
 20
-23.50486421023189
 30
0.0
 11
-198.6362508807059
 21
-23.18537452619089
 31
0.0
  0
LINE
  5
43C
330
1F
100
AcDbEntity
  8
0
100
AcDbLine
 10
-196.6579030602558
 20
-44.86582633202554
 30
0.0
 11
-203.9308743165662
 21
-44.8613657212129
 31
0.0
  0
LINE
  5
43D
330
1F
100
AcDbEntity
  8
0
100
AcDbLine
 10
-201.3283319198309
 20
-139.6700079582473
 30
0.0
 11
-201.8528928134107
 21
-139.7391273739324
 31
0.0
  0
LINE
  5
43E
330
1F
100
AcDbEntity
  8
0
100
AcDbLine
 10
-199.543706709141
 20
-23.70560434778554
 30
0.0
 11
-199.0563319370415
 21
-23.50486421023189
 31
0.0
  0
LINE
  5
43F
330
1F
100
AcDbEntity
  8
0
100
AcDbLine
 10
-200.9599195266492
 20
-267.8043371025042
 30
0.0
 11
-201.2790919099189
 21
-267.3770364688851
 31
0.0
  0
LINE
  5
440
330
1F
100
AcDbEntity
  8
0
100
AcDbLine
 10
-197.8360472043694
 20
-154.8953873917376
 30
0.0
 11
-197.9452629897264
 21
-165.0952979745478
 31
0.0
  0
LINE
  5
441
330
1F
100
AcDbEntity
  8
0
100
AcDbLine
 10
-205.150098618112
 20
-154.8908762482517
 30
0.0
 11
-197.8360472043694
 21
-154.8953873917376
 31
0.0
  0
LINE
  5
442
330
1F
100
AcDbEntity
  8
0
100
AcDbLine
 10
-203.7731044637204
 20
-270.6208325407172
 30
0.0
 11
-203.2839446138002
 21
-270.8271710409466
 31
0.0
  0
LINE
  5
443
330
1F
100
AcDbEntity
  8
0
100
AcDbLine
 10
-203.8192323338515
 20
-34.78617882017179
 30
0.0
 11
-196.5500227072969
 21
-34.7906348180309
 31
0.0
  0
LINE
  5
444
330
1F
100
AcDbEntity
  8
0
100
AcDbLine
 10
-203.9308743165662
 20
-44.8613657212129
 30
0.0
 11
-203.8192323338515
 21
-34.78617882017179
 31
0.0
  0
LINE
  5
445
330
1F
100
AcDbEntity
  8
0
100
AcDbLine
 10
-203.2996045393258
 20
-141.1780618041294
 30
0.0
 11
-203.3742918028538
 21
-141.7050161363858
 31
0.0
  0
LINE
  5
446
330
1F
100
AcDbEntity
  8
0
100
AcDbLine
 10
-203.2409893754315
 20
-266.8423265835104
 30
0.0
 11
-203.7345027615841
 21
-267.0481188316563
 31
0.0
  0
LINE
  5
447
330
1F
100
AcDbEntity
  8
0
100
AcDbLine
 10
-202.7130174701564
 20
-266.7723066397479
 30
0.0
 11
-203.2409893754315
 21
-266.8423265835104
 31
0.0
  0
LINE
  5
448
330
1F
100
AcDbEntity
  8
0
100
AcDbLine
 10
-204.7724084570078
 20
-268.8338294361629
 30
0.0
 11
-204.7087862004962
 21
-269.3677447902192
 31
0.0
  0
LINE
  5
449
330
1F
100
AcDbEntity
  8
0
100
AcDbLine
 10
-198.8030001436586
 20
-245.2013215229426
 30
0.0
 11
-198.913225444646
 21
-255.4955130664133
 31
0.0
  0
LINE
  5
44A
330
1F
100
AcDbEntity
  8
0
100
AcDbLine
 10
-200.6979817798659
 20
-268.835766629662
 30
0.0
 11
-200.7617109937016
 21
-268.3018801040851
 31
0.0
  0
LINE
  5
44B
330
1F
100
AcDbEntity
  8
0
100
AcDbLine
 10
-201.3102460003907
 20
-270.2941453351694
 30
0.0
 11
-200.9819149033338
 21
-269.86704458989
 31
0.0
  0
LINE
  5
44C
330
1F
100
AcDbEntity
  8
0
100
AcDbLine
 10
-201.6974740997448
 20
-267.0490872528031
 30
0.0
 11
-202.1865567755592
 21
-266.8428278646993
 31
0.0
  0
LINE
  5
44D
330
1F
100
AcDbEntity
  8
0
100
AcDbLine
 10
-197.9452629897264
 20
-165.0952979745478
 30
0.0
 11
-205.2631225974754
 21
-165.0907821321894
 31
0.0
  0
LINE
  5
44E
330
1F
100
AcDbEntity
  8
0
100
AcDbLine
 10
-204.7087862004962
 20
-269.3677447902192
 30
0.0
 11
-204.5106566147379
 21
-269.8653667554675
 31
0.0
  0
LINE
  5
44F
330
1F
100
AcDbEntity
  8
0
100
AcDbLine
 10
-43.13746986973089
 20
-113.0646195702686
 30
0.0
 11
-43.54320232459069
 21
-112.8953543084466
 31
0.0
  0
LINE
  5
450
330
1F
100
AcDbEntity
  8
0
100
AcDbLine
 10
-52.42764565016873
 20
-131.6808825965513
 30
0.0
 11
-51.89937928085423
 21
-131.4196986273552
 31
0.0
  0
LINE
  5
451
330
1F
100
AcDbEntity
  8
0
100
AcDbLine
 10
-51.89937928085423
 20
-131.4196986273552
 30
0.0
 11
-51.4093700417792
 21
-131.0915216814381
 31
0.0
  0
LINE
  5
452
330
1F
100
AcDbEntity
  8
0
100
AcDbLine
 10
-50.96600479841457
 20
-130.7019733800341
 30
0.0
 11
-50.57687058141269
 21
-130.257725896677
 31
0.0
  0
LINE
  5
453
330
1F
100
AcDbEntity
  8
0
100
AcDbLine
 10
-44.41503315821701
 20
-112.8948177381395
 30
0.0
 11
-44.82173226877169
 21
-113.0635829781091
 31
0.0
  0
LINE
  5
454
330
1F
100
AcDbEntity
  8
0
100
AcDbLine
 10
-67.62846300081716
 20
-113.3184171344011
 30
0.0
 11
-67.89755772864567
 21
-113.6686617745496
 31
0.0
  0
LINE
  5
455
330
1F
100
AcDbEntity
  8
0
100
AcDbLine
 10
-64.98024138843695
 20
-113.6704573160572
 30
0.0
 11
-65.24652688033542
 21
-113.3198831353455
 31
0.0
  0
LINE
  5
456
330
1F
100
AcDbEntity
  8
0
100
AcDbLine
 10
-56.2749736417564
 20
-97.05234331636892
 30
0.0
 11
-56.86086987226003
 21
-97.09051737631626
 31
0.0
  0
LINE
  5
457
330
1F
100
AcDbEntity
  8
0
100
AcDbLine
 10
-60.87597765916704
 20
-127.5004394433985
 30
0.0
 11
-60.83971863495398
 21
-128.0902336184363
 31
0.0
  0
LINE
  5
458
330
1F
100
AcDbEntity
  8
0
100
AcDbLine
 10
-65.99982488625042
 20
-112.8815333280448
 30
0.0
 11
-66.43550860983807
 21
-112.8236178386453
 31
0.0
  0
LINE
  5
459
330
1F
100
AcDbEntity
  8
0
100
AcDbLine
 10
-67.27854718732641
 20
-113.0497617598205
 30
0.0
 11
-67.62846300081716
 21
-113.3184171344011
 31
0.0
  0
LINE
  5
45A
330
1F
100
AcDbEntity
  8
0
100
AcDbLine
 10
-65.24652688033542
 20
-113.3198831353455
 30
0.0
 11
-65.59428716995772
 21
-113.0507983505141
 31
0.0
  0
LINE
  5
45B
330
1F
100
AcDbEntity
  8
0
100
AcDbLine
 10
-49.79611356676595
 20
-128.6767512567199
 30
0.0
 11
-49.679581227921
 21
-128.0971074936247
 31
0.0
  0
LINE
  5
45C
330
1F
100
AcDbEntity
  8
0
100
AcDbLine
 10
-49.98688092991878
 20
-129.2363710291815
 30
0.0
 11
-49.79611356676595
 21
-128.6767512567199
 31
0.0
  0
LINE
  5
45D
330
1F
100
AcDbEntity
  8
0
100
AcDbLine
 10
-50.24862470728593
 20
-129.7663873244178
 30
0.0
 11
-49.98688092991878
 21
-129.2363710291815
 31
0.0
  0
LINE
  5
45E
330
1F
100
AcDbEntity
  8
0
100
AcDbLine
 10
-60.54024526696052
 20
-129.2298705057684
 30
0.0
 11
-60.28214308699626
 21
-129.7602068414399
 31
0.0
  0
LINE
  5
45F
330
1F
100
AcDbEntity
  8
0
100
AcDbLine
 10
-58.5209927868275
 20
-97.65443267212875
 30
0.0
 11
-59.01028369809857
 21
-97.98148890453345
 31
0.0
  0
LINE
  5
460
330
1F
100
AcDbEntity
  8
0
100
AcDbLine
 10
-50.57687058141269
 20
-130.257725896677
 30
0.0
 11
-50.24862470728593
 21
-129.7663873244178
 31
0.0
  0
LINE
  5
461
330
1F
100
AcDbEntity
  8
0
100
AcDbLine
 10
-42.52271178915955
 20
-113.6842794120706
 30
0.0
 11
-42.7894002093366
 21
-113.333704735609
 31
0.0
  0
LINE
  5
462
330
1F
100
AcDbEntity
  8
0
100
AcDbLine
 10
-50.86209747791847
 20
-98.3750187756494
 30
0.0
 11
-51.30221289612832
 21
-97.98622923753531
 31
0.0
  0
LINE
  5
463
330
1F
100
AcDbEntity
  8
0
100
AcDbLine
 10
-50.4764390026365
 20
-98.81829568829683
 30
0.0
 11
-50.86209747791847
 21
-98.3750187756494
 31
0.0
  0
LINE
  5
464
330
1F
100
AcDbEntity
  8
0
100
AcDbLine
 10
-50.15183711875693
 20
-99.30848224691623
 30
0.0
 11
-50.4764390026365
 21
-98.81829568829683
 31
0.0
  0
LINE
  5
465
330
1F
100
AcDbEntity
  8
0
100
AcDbLine
 10
-59.57119235470056
 20
-130.6966724718515
 30
0.0
 11
-59.13050475694643
 21
-131.086765266615
 31
0.0
  0
LINE
  5
466
330
1F
100
AcDbEntity
  8
0
100
AcDbLine
 10
-42.7894002093366
 20
-113.333704735609
 30
0.0
 11
-43.13746986973089
 21
-113.0646195702686
 31
0.0
  0
LINE
  5
467
330
1F
100
AcDbEntity
  8
0
100
AcDbLine
 10
-49.89384851644512
 20
-99.83719761704754
 30
0.0
 11
-50.15183711875693
 21
-99.30848224691623
 31
0.0
  0
LINE
  5
468
330
1F
100
AcDbEntity
  8
0
100
AcDbLine
 10
-52.31489487322547
 20
-97.39764848434093
 30
0.0
 11
-52.8701409537211
 21
-97.20791615609131
 31
0.0
  0
LINE
  5
469
330
1F
100
AcDbEntity
  8
0
100
AcDbLine
 10
-60.87597765916704
 20
-127.5004394433985
 30
0.0
 11
-60.77942451818919
 21
-101.5548382818515
 31
0.0
  0
LINE
  5
46A
330
1F
100
AcDbEntity
  8
0
100
AcDbLine
 10
-51.78925563511657
 20
-97.65857250708918
 30
0.0
 11
-52.31489487322547
 21
-97.39764848434093
 31
0.0
  0
LINE
  5
46B
330
1F
100
AcDbEntity
  8
0
100
AcDbLine
 10
-51.30221289612832
 20
-97.98622923753531
 30
0.0
 11
-51.78925563511657
 21
-97.65857250708918
 31
0.0
  0
LINE
  5
46C
330
1F
100
AcDbEntity
  8
0
100
AcDbLine
 10
-45.60949706042001
 20
-114.0904570748468
 30
0.0
 11
-45.66818005720506
 21
-114.5283610157231
 31
0.0
  0
LINE
  5
46D
330
1F
100
AcDbEntity
  8
0
100
AcDbLine
 10
-68.06749109346343
 20
-114.0766344044439
 30
0.0
 11
-68.12667711216426
 21
-114.5145377260521
 31
0.0
  0
LINE
  5
46E
330
1F
100
AcDbEntity
  8
0
100
AcDbLine
 10
-45.66818005720506
 20
-114.5283610157231
 30
0.0
 11
-45.61207482087341
 21
-114.9663552311103
 31
0.0
  0
LINE
  5
46F
330
1F
100
AcDbEntity
  8
0
100
AcDbLine
 10
-60.16973562882541
 20
-99.30232099216803
 30
0.0
 11
-60.43135435960223
 21
-99.83071661561237
 31
0.0
  0
LINE
  5
470
330
1F
100
AcDbEntity
  8
0
100
AcDbLine
 10
-60.43135435960223
 20
-99.83071661561237
 30
0.0
 11
-60.62214420706818
 21
-100.3886872980309
 31
0.0
  0
LINE
  5
471
330
1F
100
AcDbEntity
  8
0
100
AcDbLine
 10
-49.70689166990086
 20
-100.3954008210812
 30
0.0
 11
-49.89384851644512
 21
-99.83719761704754
 31
0.0
  0
LINE
  5
472
330
1F
100
AcDbEntity
  8
0
100
AcDbLine
 10
-49.679581227921
 20
-128.0971074936247
 30
0.0
 11
-49.63927143354925
 21
-127.5073602710504
 31
0.0
  0
LINE
  5
473
330
1F
100
AcDbEntity
  8
0
100
AcDbLine
 10
-60.62214420706818
 20
-100.3886872980309
 30
0.0
 11
-60.73883525188329
 21
-100.9666902301444
 31
0.0
  0
LINE
  5
474
330
1F
100
AcDbEntity
  8
0
100
AcDbLine
 10
-60.28214308699626
 20
-129.7602068414399
 30
0.0
 11
-59.95727347184006
 21
-130.2519475769733
 31
0.0
  0
LINE
  5
475
330
1F
100
AcDbEntity
  8
0
100
AcDbLine
 10
-60.73883525188329
 20
-100.9666902301444
 30
0.0
 11
-60.77942451818919
 21
-101.5548382818515
 31
0.0
  0
LINE
  5
476
330
1F
100
AcDbEntity
  8
0
100
AcDbLine
 10
-59.84176855699864
 20
-98.81253592403482
 30
0.0
 11
-60.16973562882541
 21
-99.30232099216803
 31
0.0
  0
LINE
  5
477
330
1F
100
AcDbEntity
  8
0
100
AcDbLine
 10
-56.86086987226003
 20
-97.09051737631626
 30
0.0
 11
-57.43701716639369
 21
-97.20510771633472
 31
0.0
  0
LINE
  5
478
330
1F
100
AcDbEntity
  8
0
100
AcDbLine
 10
-43.14572505109803
 20
-115.9954323934654
 30
0.0
 11
-42.79609783531445
 21
-115.7267034331722
 31
0.0
  0
LINE
  5
479
330
1F
100
AcDbEntity
  8
0
100
AcDbLine
 10
-57.43701716639369
 20
-97.20510771633472
 30
0.0
 11
-57.993563864821
 21
-97.39415630420362
 31
0.0
  0
LINE
  5
47A
330
1F
100
AcDbEntity
  8
0
100
AcDbLine
 10
-64.9868980415173
 20
-115.3625605548844
 30
0.0
 11
-64.8170177923842
 21
-114.9545342514387
 31
0.0
  0
LINE
  5
47B
330
1F
100
AcDbEntity
  8
0
100
AcDbLine
 10
-52.98512613303603
 20
-131.8705991455488
 30
0.0
 11
-52.42764565016873
 21
-131.6808825965513
 31
0.0
  0
LINE
  5
47C
330
1F
100
AcDbEntity
  8
0
100
AcDbLine
 10
-68.07107508262118
 20
-114.9525313220296
 30
0.0
 11
-67.90446689943595
 21
-115.3607647025247
 31
0.0
  0
LINE
  5
47D
330
1F
100
AcDbEntity
  8
0
100
AcDbLine
 10
-59.45306736184328
 20
-98.36973536957768
 30
0.0
 11
-59.84176855699864
 21
-98.81253592403482
 31
0.0
  0
LINE
  5
47E
330
1F
100
AcDbEntity
  8
0
100
AcDbLine
 10
-43.97895288959508
 20
-112.837438737151
 30
0.0
 11
-44.41503315821701
 21
-112.8948177381395
 31
0.0
  0
LINE
  5
47F
330
1F
100
AcDbEntity
  8
0
100
AcDbLine
 10
-56.98374888603597
 20
-131.9834901334042
 30
0.0
 11
-56.39707580312794
 21
-132.0225238698744
 31
0.0
  0
LINE
  5
480
330
1F
100
AcDbEntity
  8
0
100
AcDbLine
 10
-57.56010689567743
 20
-131.8677807290011
 30
0.0
 11
-56.98374888603597
 21
-131.9834901334042
 31
0.0
  0
LINE
  5
481
330
1F
100
AcDbEntity
  8
0
100
AcDbLine
 10
-58.11628180570415
 20
-131.6773781467246
 30
0.0
 11
-57.56010689567743
 21
-131.8677807290011
 31
0.0
  0
LINE
  5
482
330
1F
100
AcDbEntity
  8
0
100
AcDbLine
 10
-58.64275183820386
 20
-131.4155444690817
 30
0.0
 11
-58.11628180570415
 21
-131.6773781467246
 31
0.0
  0
LINE
  5
483
330
1F
100
AcDbEntity
  8
0
100
AcDbLine
 10
-59.13050475694643
 20
-131.086765266615
 30
0.0
 11
-58.64275183820386
 21
-131.4155444690817
 31
0.0
  0
LINE
  5
484
330
1F
100
AcDbEntity
  8
0
100
AcDbLine
 10
-59.95727347184006
 20
-130.2519475769733
 30
0.0
 11
-59.57119235470056
 21
-130.6966724718515
 31
0.0
  0
LINE
  5
485
330
1F
100
AcDbEntity
  8
0
100
AcDbLine
 10
-60.72716804761721
 20
-128.6700182813065
 30
0.0
 11
-60.54024526696052
 21
-129.2298705057684
 31
0.0
  0
LINE
  5
486
330
1F
100
AcDbEntity
  8
0
100
AcDbLine
 10
-60.83971863495398
 20
-128.0902336184363
 30
0.0
 11
-60.72716804761721
 21
-128.6700182813065
 31
0.0
  0
LINE
  5
487
330
1F
100
AcDbEntity
  8
0
100
AcDbLine
 10
-44.83023996856389
 20
-115.9943954904533
 30
0.0
 11
-44.42445433628402
 21
-116.1637144259411
 31
0.0
  0
LINE
  5
488
330
1F
100
AcDbEntity
  8
0
100
AcDbLine
 10
-57.993563864821
 20
-97.39415630420362
 30
0.0
 11
-58.5209927868275
 21
-97.65443267212875
 31
0.0
  0
LINE
  5
489
330
1F
100
AcDbEntity
  8
0
100
AcDbLine
 10
-56.2749736417564
 20
-97.05234331636892
 30
0.0
 11
-54.03113058425389
 21
-97.05372317608905
 31
0.0
  0
LINE
  5
48A
330
1F
100
AcDbEntity
  8
0
100
AcDbLine
 10
-65.25597357524211
 20
-115.7128784487771
 30
0.0
 11
-64.9868980415173
 21
-115.3625605548844
 31
0.0
  0
LINE
  5
48B
330
1F
100
AcDbEntity
  8
0
100
AcDbLine
 10
-54.14921538011425
 20
-132.0239086750163
 30
0.0
 11
-53.56227657857788
 21
-131.9855979435829
 31
0.0
  0
LINE
  5
48C
330
1F
100
AcDbEntity
  8
0
100
AcDbLine
 10
-42.5274245568965
 20
-115.3763850438402
 30
0.0
 11
-42.46802506051824
 21
-115.233321716557
 31
0.0
  0
LINE
  5
48D
330
1F
100
AcDbEntity
  8
0
100
AcDbLine
 10
-64.81357959439408
 20
-114.0786371543825
 30
0.0
 11
-64.98024138843695
 21
-113.6704573160572
 31
0.0
  0
LINE
  5
48E
330
1F
100
AcDbEntity
  8
0
100
AcDbLine
 10
-67.89755772864567
 20
-113.6686617745496
 30
0.0
 11
-68.06749109346343
 21
-114.0766344044439
 31
0.0
  0
LINE
  5
48F
330
1F
100
AcDbEntity
  8
0
100
AcDbLine
 10
-66.87165448705383
 20
-112.8809967584964
 30
0.0
 11
-67.27854718732641
 21
-113.0497617598205
 31
0.0
  0
LINE
  5
490
330
1F
100
AcDbEntity
  8
0
100
AcDbLine
 10
-66.44907443380812
 20
-116.2078240244627
 30
0.0
 11
-66.01285557038511
 21
-116.1504255725077
 31
0.0
  0
LINE
  5
491
330
1F
100
AcDbEntity
  8
0
100
AcDbLine
 10
-66.01285557038511
 20
-116.1504255725077
 30
0.0
 11
-65.60590925925491
 21
-115.9816070290132
 31
0.0
  0
LINE
  5
492
330
1F
100
AcDbEntity
  8
0
100
AcDbLine
 10
-64.8170177923842
 20
-114.9545342514387
 30
0.0
 11
-64.75790457864429
 21
-114.5166112182564
 31
0.0
  0
LINE
  5
493
330
1F
100
AcDbEntity
  8
0
100
AcDbLine
 10
-44.82173226877169
 20
-113.0635829781091
 30
0.0
 11
-45.17133969810391
 21
-113.3322387325915
 31
0.0
  0
LINE
  5
494
330
1F
100
AcDbEntity
  8
0
100
AcDbLine
 10
-67.63820127805995
 20
-115.7114120888916
 30
0.0
 11
-67.29042179433446
 21
-115.9805701274676
 31
0.0
  0
LINE
  5
495
330
1F
100
AcDbEntity
  8
0
100
AcDbLine
 10
-45.61207482087341
 20
-114.9663552311103
 30
0.0
 11
-45.44499754096781
 21
-115.3745891889408
 31
0.0
  0
LINE
  5
496
330
1F
100
AcDbEntity
  8
0
100
AcDbLine
 10
-42.44969341499683
 20
-113.8626107853298
 30
0.0
 11
-42.52271178915955
 21
-113.6842794120706
 31
0.0
  0
LINE
  5
497
330
1F
100
AcDbEntity
  8
0
100
AcDbLine
 10
-44.42445433628402
 20
-116.1637144259411
 30
0.0
 11
-43.98863094357068
 21
-116.2216497088528
 31
0.0
  0
LINE
  5
498
330
1F
100
AcDbEntity
  8
0
100
AcDbLine
 10
-42.79609783531445
 20
-115.7267034331722
 30
0.0
 11
-42.5274245568965
 21
-115.3763850438402
 31
0.0
  0
LINE
  5
499
330
1F
100
AcDbEntity
  8
0
100
AcDbLine
 10
-43.5524777110768
 20
-116.164251175719
 30
0.0
 11
-43.14572505109803
 21
-115.9954323934654
 31
0.0
  0
LINE
  5
49A
330
1F
100
AcDbEntity
  8
0
100
AcDbLine
 10
-45.17133969810391
 20
-113.3322387325915
 30
0.0
 11
-45.44003225480674
 21
-113.6824838680238
 31
0.0
  0
LINE
  5
49B
330
1F
100
AcDbEntity
  8
0
100
AcDbLine
 10
-42.29940275962677
 20
-114.5304345108598
 30
0.0
 11
-42.35558095982987
 21
-114.0924598276176
 31
0.0
  0
LINE
  5
49C
330
1F
100
AcDbEntity
  8
0
100
AcDbLine
 10
-53.44549891575112
 20
-97.09261767566404
 30
0.0
 11
-54.03113058425389
 21
-97.05372317608905
 31
0.0
  0
LINE
  5
49D
330
1F
100
AcDbEntity
  8
0
100
AcDbLine
 10
-49.55762141733427
 20
-101.5617407635975
 30
0.0
 11
-49.63927143354925
 21
-127.5073602710504
 31
0.0
  0
LINE
  5
49E
330
1F
100
AcDbEntity
  8
0
100
AcDbLine
 10
-54.14921538011425
 20
-132.0239086750163
 30
0.0
 11
-56.39707580312794
 21
-132.0225238698744
 31
0.0
  0
LINE
  5
49F
330
1F
100
AcDbEntity
  8
0
100
AcDbLine
 10
-67.90446689943595
 20
-115.3607647025247
 30
0.0
 11
-67.63820127805995
 21
-115.7114120888916
 31
0.0
  0
LINE
  5
4A0
330
1F
100
AcDbEntity
  8
0
100
AcDbLine
 10
-42.35558095982987
 20
-114.0924598276176
 30
0.0
 11
-42.44969341499683
 21
-113.8626107853298
 31
0.0
  0
LINE
  5
4A1
330
1F
100
AcDbEntity
  8
0
100
AcDbLine
 10
-45.44003225480674
 20
-113.6824838680238
 30
0.0
 11
-45.60949706042001
 21
-114.0904570748468
 31
0.0
  0
LINE
  5
4A2
330
1F
100
AcDbEntity
  8
0
100
AcDbLine
 10
-65.60590925925491
 20
-115.9816070290132
 30
0.0
 11
-65.25597357524211
 21
-115.7128784487771
 31
0.0
  0
LINE
  5
4A3
330
1F
100
AcDbEntity
  8
0
100
AcDbLine
 10
-64.75790457864429
 20
-114.5166112182564
 30
0.0
 11
-64.81357959439408
 21
-114.0786371543825
 31
0.0
  0
LINE
  5
4A4
330
1F
100
AcDbEntity
  8
0
100
AcDbLine
 10
-66.8848309623571
 20
-116.1498888234889
 30
0.0
 11
-66.44907443380812
 21
-116.2078240244627
 31
0.0
  0
LINE
  5
4A5
330
1F
100
AcDbEntity
  8
0
100
AcDbLine
 10
-45.1783289072426
 20
-115.7252370712129
 30
0.0
 11
-44.83023996856389
 21
-115.9943954904533
 31
0.0
  0
LINE
  5
4A6
330
1F
100
AcDbEntity
  8
0
100
AcDbLine
 10
-67.29042179433446
 20
-115.9805701274676
 30
0.0
 11
-66.8848309623571
 21
-116.1498888234889
 31
0.0
  0
LINE
  5
4A7
330
1F
100
AcDbEntity
  8
0
100
AcDbLine
 10
-66.43550860983807
 20
-112.8236178386453
 30
0.0
 11
-66.87165448705383
 21
-112.8809967584964
 31
0.0
  0
LINE
  5
4A8
330
1F
100
AcDbEntity
  8
0
100
AcDbLine
 10
-68.12667711216426
 20
-114.5145377260521
 30
0.0
 11
-68.07107508262118
 21
-114.9525313220296
 31
0.0
  0
LINE
  5
4A9
330
1F
100
AcDbEntity
  8
0
100
AcDbLine
 10
-49.55762141733427
 20
-101.5617407635975
 30
0.0
 11
-49.59417094887112
 21
-100.9735450577756
 31
0.0
  0
LINE
  5
4AA
330
1F
100
AcDbEntity
  8
0
100
AcDbLine
 10
-49.59417094887112
 20
-100.9735450577756
 30
0.0
 11
-49.70689166990086
 21
-100.3954008210812
 31
0.0
  0
LINE
  5
4AB
330
1F
100
AcDbEntity
  8
0
100
AcDbLine
 10
-43.54320232459069
 20
-112.8953543084466
 30
0.0
 11
-43.97895288959508
 21
-112.837438737151
 31
0.0
  0
LINE
  5
4AC
330
1F
100
AcDbEntity
  8
0
100
AcDbLine
 10
-59.01028369809857
 20
-97.98148890453345
 30
0.0
 11
-59.45306736184328
 21
-98.36973536957768
 31
0.0
  0
LINE
  5
4AD
330
1F
100
AcDbEntity
  8
0
100
AcDbLine
 10
-51.4093700417792
 20
-131.0915216814381
 30
0.0
 11
-50.96600479841457
 21
-130.7019733800341
 31
0.0
  0
LINE
  5
4AE
330
1F
100
AcDbEntity
  8
0
100
AcDbLine
 10
-53.56227657857788
 20
-131.9855979435829
 30
0.0
 11
-52.98512613303603
 21
-131.8705991455488
 31
0.0
  0
LINE
  5
4AF
330
1F
100
AcDbEntity
  8
0
100
AcDbLine
 10
-52.8701409537211
 20
-97.20791615609131
 30
0.0
 11
-53.44549891575112
 21
-97.09261767566404
 31
0.0
  0
LINE
  5
4B0
330
1F
100
AcDbEntity
  8
0
100
AcDbLine
 10
-65.59428716995772
 20
-113.0507983505141
 30
0.0
 11
-65.99982488625042
 21
-112.8815333280448
 31
0.0
  0
LINE
  5
4B1
330
1F
100
AcDbEntity
  8
0
100
AcDbLine
 10
-43.98863094357068
 20
-116.2216497088528
 30
0.0
 11
-43.5524777110768
 21
-116.164251175719
 31
0.0
  0
LINE
  5
4B2
330
1F
100
AcDbEntity
  8
0
100
AcDbLine
 10
-42.46802506051824
 20
-115.233321716557
 30
0.0
 11
-42.35801292870332
 21
-114.968358163352
 31
0.0
  0
LINE
  5
4B3
330
1F
100
AcDbEntity
  8
0
100
AcDbLine
 10
-45.44499754096781
 20
-115.3745891889408
 30
0.0
 11
-45.1783289072426
 21
-115.7252370712129
 31
0.0
  0
LINE
  5
4B4
330
1F
100
AcDbEntity
  8
0
100
AcDbLine
 10
-42.35801292870332
 20
-114.968358163352
 30
0.0
 11
-42.29940275962677
 21
-114.5304345108598
 31
0.0
  0
LINE
  5
4B5
330
1F
100
AcDbEntity
  8
0
100
AcDbLine
 10
-169.639464267079
 20
-156.2278968189413
 30
0.0
 11
-169.2923712214579
 21
-156.4981716155845
 31
0.0
  0
LINE
  5
4B6
330
1F
100
AcDbEntity
  8
0
100
AcDbLine
 10
-151.7083569775901
 20
-168.6649974307022
 30
0.0
 11
-151.6648814696374
 21
-168.0728017990361
 31
0.0
  0
LINE
  5
4B7
330
1F
100
AcDbEntity
  8
0
100
AcDbLine
 10
-145.506192295247
 20
-156.6826147799389
 30
0.0
 11
-145.097714512227
 21
-156.5130955467531
 31
0.0
  0
LINE
  5
4B8
330
1F
100
AcDbEntity
  8
0
100
AcDbLine
 10
-168.88682503782
 20
-156.6681928362182
 30
0.0
 11
-168.4504683190559
 21
-156.7263684190449
 31
0.0
  0
LINE
  5
4B9
330
1F
100
AcDbEntity
  8
0
100
AcDbLine
 10
-169.9044484705994
 20
-155.8757945918675
 30
0.0
 11
-169.639464267079
 21
-156.2278968189413
 31
0.0
  0
LINE
  5
4BA
330
1F
100
AcDbEntity
  8
0
100
AcDbLine
 10
-162.7818479156777
 20
-169.240286799818
 30
0.0
 11
-162.5974640389031
 21
-169.8024634573475
 31
0.0
  0
LINE
  5
4BB
330
1F
100
AcDbEntity
  8
0
100
AcDbLine
 10
-170.0692676292454
 20
-155.4658674785789
 30
0.0
 11
-169.9044484705994
 21
-155.8757945918675
 31
0.0
  0
LINE
  5
4BC
330
1F
100
AcDbEntity
  8
0
100
AcDbLine
 10
-162.8916011578307
 20
-168.6580950173378
 30
0.0
 11
-162.7818479156777
 21
-169.240286799818
 31
0.0
  0
LINE
  5
4BD
330
1F
100
AcDbEntity
  8
0
100
AcDbLine
 10
-167.5774050883464
 20
-153.5562448126661
 30
0.0
 11
-167.9828982171175
 21
-153.3862775999516
 31
0.0
  0
LINE
  5
4BE
330
1F
100
AcDbEntity
  8
0
100
AcDbLine
 10
-160.1812670478189
 20
-172.2601336127425
 30
0.0
 11
-159.6249338285763
 21
-172.4513268359985
 31
0.0
  0
LINE
  5
4BF
330
1F
100
AcDbEntity
  8
0
100
AcDbLine
 10
-167.2523073538736
 20
-156.2293692628285
 30
0.0
 11
-166.9808428042095
 21
-155.8775978951759
 31
0.0
  0
LINE
  5
4C0
330
1F
100
AcDbEntity
  8
0
100
AcDbLine
 10
-166.9808428042095
 20
-155.8775978951759
 30
0.0
 11
-166.8084774354721
 21
-155.4678787179205
 31
0.0
  0
LINE
  5
4C1
330
1F
100
AcDbEntity
  8
0
100
AcDbLine
 10
-155.040478855805
 20
-172.4541569559938
 30
0.0
 11
-154.4808505564745
 21
-172.2636526146217
 31
0.0
  0
LINE
  5
4C2
330
1F
100
AcDbEntity
  8
0
100
AcDbLine
 10
-144.3030030653742
 20
-155.4817599837387
 30
0.0
 11
-144.2419831196985
 21
-155.0420194534808
 31
0.0
  0
LINE
  5
4C3
330
1F
100
AcDbEntity
  8
0
100
AcDbLine
 10
-166.7469523613227
 20
-155.0281388108308
 30
0.0
 11
-166.8004531202907
 21
-154.5883477021634
 31
0.0
  0
LINE
  5
4C4
330
1F
100
AcDbEntity
  8
0
100
AcDbLine
 10
-147.5637978801586
 20
-155.4797487415468
 30
0.0
 11
-147.3985076815648
 21
-155.8896764357674
 31
0.0
  0
LINE
  5
4C5
330
1F
100
AcDbEntity
  8
0
100
AcDbLine
 10
-159.6249338285763
 20
-172.4513268359985
 30
0.0
 11
-159.0479852068119
 21
-172.5675167239831
 31
0.0
  0
LINE
  5
4C6
330
1F
100
AcDbEntity
  8
0
100
AcDbLine
 10
-169.2923712214579
 20
-156.4981716155845
 30
0.0
 11
-168.88682503782
 21
-156.6681928362182
 31
0.0
  0
LINE
  5
4C7
330
1F
100
AcDbEntity
  8
0
100
AcDbLine
 10
-168.0130453486983
 20
-156.6687318122861
 30
0.0
 11
-167.6043731122941
 21
-156.4992128193468
 31
0.0
  0
LINE
  5
4C8
330
1F
100
AcDbEntity
  8
0
100
AcDbLine
 10
-144.2959891474631
 20
-154.6022277215868
 30
0.0
 11
-144.3890955702802
 21
-154.3714251088015
 31
0.0
  0
LINE
  5
4C9
330
1F
100
AcDbEntity
  8
0
100
AcDbLine
 10
-167.6043731122941
 20
-156.4992128193468
 30
0.0
 11
-167.2523073538736
 21
-156.2293692628285
 31
0.0
  0
LINE
  5
4CA
330
1F
100
AcDbEntity
  8
0
100
AcDbLine
 10
-145.9435493627879
 20
-156.7402514683823
 30
0.0
 11
-145.506192295247
 21
-156.6826147799389
 31
0.0
  0
LINE
  5
4CB
330
1F
100
AcDbEntity
  8
0
100
AcDbLine
 10
-147.3846896432189
 20
-154.1905509101244
 30
0.0
 11
-147.5566375667475
 21
-154.6002166599839
 31
0.0
  0
LINE
  5
4CC
330
1F
100
AcDbEntity
  8
0
100
AcDbLine
 10
-145.4798160170729
 20
-153.4001559159964
 30
0.0
 11
-145.9161668503629
 21
-153.3420000851339
 31
0.0
  0
LINE
  5
4CD
330
1F
100
AcDbEntity
  8
0
100
AcDbLine
 10
-144.4748978719163
 20
-155.8914797416315
 30
0.0
 11
-144.414627716117
 21
-155.7478228497277
 31
0.0
  0
LINE
  5
4CE
330
1F
100
AcDbEntity
  8
0
100
AcDbLine
 10
-161.3467193077162
 20
-138.8143006131965
 30
0.0
 11
-161.7385399423182
 21
-139.258936755808
 31
0.0
  0
LINE
  5
4CF
330
1F
100
AcDbEntity
  8
0
100
AcDbLine
 10
-160.900989425984
 20
-138.4244447432
 30
0.0
 11
-161.3467193077162
 21
-138.8143006131965
 31
0.0
  0
LINE
  5
4D0
330
1F
100
AcDbEntity
  8
0
100
AcDbLine
 10
-159.8790944738847
 20
-137.8346775236214
 30
0.0
 11
-160.4089758889928
 21
-138.0960327836996
 31
0.0
  0
LINE
  5
4D1
330
1F
100
AcDbEntity
  8
0
100
AcDbLine
 10
-159.3204073315832
 20
-137.6448453045441
 30
0.0
 11
-159.8790944738847
 21
-137.8346775236214
 31
0.0
  0
LINE
  5
4D2
330
1F
100
AcDbEntity
  8
0
100
AcDbLine
 10
-153.4573827511913
 20
-171.6718444445627
 30
0.0
 11
-153.0110620585029
 21
-171.2806786282182
 31
0.0
  0
LINE
  5
4D3
330
1F
100
AcDbEntity
  8
0
100
AcDbLine
 10
-168.4504683190559
 20
-156.7263684190449
 30
0.0
 11
-168.0130453486983
 21
-156.6687318122861
 31
0.0
  0
LINE
  5
4D4
330
1F
100
AcDbEntity
  8
0
100
AcDbLine
 10
-146.7857150136543
 20
-156.5120543415152
 30
0.0
 11
-146.3799732227167
 21
-156.6820758031072
 31
0.0
  0
LINE
  5
4D5
330
1F
100
AcDbEntity
  8
0
100
AcDbLine
 10
-170.1226949968774
 20
-155.0260567161299
 30
0.0
 11
-170.0692676292454
 21
-155.4658674785789
 31
0.0
  0
LINE
  5
4D6
330
1F
100
AcDbEntity
  8
0
100
AcDbLine
 10
-162.9248522993709
 20
-168.0658522391452
 30
0.0
 11
-162.6924723167865
 21
-142.0126080004587
 31
0.0
  0
LINE
  5
4D7
330
1F
100
AcDbEntity
  8
0
100
AcDbLine
 10
-162.6487245532197
 20
-141.4220215019355
 30
0.0
 11
-162.6924723167865
 21
-142.0126080004587
 31
0.0
  0
LINE
  5
4D8
330
1F
100
AcDbEntity
  8
0
100
AcDbLine
 10
-162.5287704606093
 20
-140.841622256157
 30
0.0
 11
-162.6487245532197
 21
-141.4220215019355
 31
0.0
  0
LINE
  5
4D9
330
1F
100
AcDbEntity
  8
0
100
AcDbLine
 10
-162.3346688588965
 20
-140.2813383782486
 30
0.0
 11
-162.5287704606093
 21
-140.841622256157
 31
0.0
  0
LINE
  5
4DA
330
1F
100
AcDbEntity
  8
0
100
AcDbLine
 10
-162.069746332931
 20
-139.7507522306069
 30
0.0
 11
-162.3346688588965
 21
-140.2813383782486
 31
0.0
  0
LINE
  5
4DB
330
1F
100
AcDbEntity
  8
0
100
AcDbLine
 10
-161.7385399423182
 20
-139.258936755808
 30
0.0
 11
-162.069746332931
 21
-139.7507522306069
 31
0.0
  0
LINE
  5
4DC
330
1F
100
AcDbEntity
  8
0
100
AcDbLine
 10
-160.4089758889928
 20
-138.0960327836996
 30
0.0
 11
-160.900989425984
 21
-138.4244447432
 31
0.0
  0
LINE
  5
4DD
330
1F
100
AcDbEntity
  8
0
100
AcDbLine
 10
-158.7424682216131
 20
-137.5297799762303
 30
0.0
 11
-159.3204073315832
 21
-137.6448453045441
 31
0.0
  0
LINE
  5
4DE
330
1F
100
AcDbEntity
  8
0
100
AcDbLine
 10
-158.1551594214992
 20
-137.4914476816487
 30
0.0
 11
-158.7424682216131
 21
-137.5297799762303
 31
0.0
  0
LINE
  5
4DF
330
1F
100
AcDbEntity
  8
0
100
AcDbLine
 10
-151.4474663458036
 20
-142.0195391001552
 30
0.0
 11
-151.6648814696374
 21
-168.0728017990361
 31
0.0
  0
LINE
  5
4E0
330
1F
100
AcDbEntity
  8
0
100
AcDbLine
 10
-158.1551594214992
 20
-137.4914476816487
 30
0.0
 11
-155.9066779322229
 21
-137.492833260996
 31
0.0
  0
LINE
  5
4E1
330
1F
100
AcDbEntity
  8
0
100
AcDbLine
 10
-155.3200370580949
 20
-137.5318889815015
 30
0.0
 11
-155.9066779322229
 21
-137.492833260996
 31
0.0
  0
LINE
  5
4E2
330
1F
100
AcDbEntity
  8
0
100
AcDbLine
 10
-154.7440904806907
 20
-137.6476653855964
 30
0.0
 11
-155.3200370580949
 21
-137.5318889815015
 31
0.0
  0
LINE
  5
4E3
330
1F
100
AcDbEntity
  8
0
100
AcDbLine
 10
-154.1886864339948
 20
-137.8381841793753
 30
0.0
 11
-154.7440904806907
 21
-137.6476653855964
 31
0.0
  0
LINE
  5
4E4
330
1F
100
AcDbEntity
  8
0
100
AcDbLine
 10
-153.6633225811968
 20
-138.1001897791338
 30
0.0
 11
-154.1886864339948
 21
-137.8381841793753
 31
0.0
  0
LINE
  5
4E5
330
1F
100
AcDbEntity
  8
0
100
AcDbLine
 10
-153.1769838785802
 20
-138.4292047261947
 30
0.0
 11
-153.6633225811968
 21
-138.1001897791338
 31
0.0
  0
LINE
  5
4E6
330
1F
100
AcDbEntity
  8
0
100
AcDbLine
 10
-152.73798912421
 20
-138.8196059208863
 30
0.0
 11
-153.1769838785802
 21
-138.4292047261947
 31
0.0
  0
LINE
  5
4E7
330
1F
100
AcDbEntity
  8
0
100
AcDbLine
 10
-152.3538487976844
 20
-139.2647203969074
 30
0.0
 11
-152.73798912421
 21
-138.8196059208863
 31
0.0
  0
LINE
  5
4E8
330
1F
100
AcDbEntity
  8
0
100
AcDbLine
 10
-152.0311366113026
 20
-139.7569390271954
 30
0.0
 11
-152.3538487976844
 21
-139.2647203969074
 31
0.0
  0
LINE
  5
4E9
330
1F
100
AcDbEntity
  8
0
100
AcDbLine
 10
-151.7753769664971
 20
-140.2878462477818
 30
0.0
 11
-152.0311366113026
 21
-139.7569390271954
 31
0.0
  0
LINE
  5
4EA
330
1F
100
AcDbEntity
  8
0
100
AcDbLine
 10
-151.5909502456154
 20
-140.8483636120609
 30
0.0
 11
-151.7753769664971
 21
-140.2878462477818
 31
0.0
  0
LINE
  5
4EB
330
1F
100
AcDbEntity
  8
0
100
AcDbLine
 10
-151.481017572045
 20
-141.428904749083
 30
0.0
 11
-151.5909502456154
 21
-140.8483636120609
 31
0.0
  0
LINE
  5
4EC
330
1F
100
AcDbEntity
  8
0
100
AcDbLine
 10
-151.4474663458036
 20
-142.0195391001552
 30
0.0
 11
-151.481017572045
 21
-141.428904749083
 31
0.0
  0
LINE
  5
4ED
330
1F
100
AcDbEntity
  8
0
100
AcDbLine
 10
-159.0479852068119
 20
-172.5675167239831
 30
0.0
 11
-158.4602993269227
 21
-172.6067125487812
 31
0.0
  0
LINE
  5
4EE
330
1F
100
AcDbEntity
  8
0
100
AcDbLine
 10
-160.7074603774122
 20
-171.997212691255
 30
0.0
 11
-160.1812670478189
 21
-172.2601336127425
 31
0.0
  0
LINE
  5
4EF
330
1F
100
AcDbEntity
  8
0
100
AcDbLine
 10
-161.1945063271333
 20
-171.6670682795626
 30
0.0
 11
-160.7074603774122
 21
-171.997212691255
 31
0.0
  0
LINE
  5
4F0
330
1F
100
AcDbEntity
  8
0
100
AcDbLine
 10
-161.6340688089873
 20
-171.2753557093854
 30
0.0
 11
-161.1945063271333
 21
-171.6670682795626
 31
0.0
  0
LINE
  5
4F1
330
1F
100
AcDbEntity
  8
0
100
AcDbLine
 10
-162.0186259468952
 20
-170.8287842307079
 30
0.0
 11
-161.6340688089873
 21
-171.2753557093854
 31
0.0
  0
LINE
  5
4F2
330
1F
100
AcDbEntity
  8
0
100
AcDbLine
 10
-162.3415988351813
 20
-170.3350017415246
 30
0.0
 11
-162.0186259468952
 21
-170.8287842307079
 31
0.0
  0
LINE
  5
4F3
330
1F
100
AcDbEntity
  8
0
100
AcDbLine
 10
-162.5974640389031
 20
-169.8024634573475
 30
0.0
 11
-162.3415988351813
 21
-170.3350017415246
 31
0.0
  0
LINE
  5
4F4
330
1F
100
AcDbEntity
  8
0
100
AcDbLine
 10
-162.9248522993709
 20
-168.0658522391452
 30
0.0
 11
-162.8916011578307
 21
-168.6580950173378
 31
0.0
  0
LINE
  5
4F5
330
1F
100
AcDbEntity
  8
0
100
AcDbLine
 10
-151.8281602997824
 20
-169.2470477292666
 30
0.0
 11
-151.7083569775901
 21
-168.6649974307022
 31
0.0
  0
LINE
  5
4F6
330
1F
100
AcDbEntity
  8
0
100
AcDbLine
 10
-152.0222479611479
 20
-169.8089909704738
 30
0.0
 11
-151.8281602997824
 21
-169.2470477292666
 31
0.0
  0
LINE
  5
4F7
330
1F
100
AcDbEntity
  8
0
100
AcDbLine
 10
-152.2873045409029
 20
-170.3412078861281
 30
0.0
 11
-152.0222479611479
 21
-169.8089909704738
 31
0.0
  0
LINE
  5
4F8
330
1F
100
AcDbEntity
  8
0
100
AcDbLine
 10
-152.6187990271204
 20
-170.8345865428429
 30
0.0
 11
-152.2873045409029
 21
-170.3412078861281
 31
0.0
  0
LINE
  5
4F9
330
1F
100
AcDbEntity
  8
0
100
AcDbLine
 10
-153.0110620585029
 20
-171.2806786282182
 30
0.0
 11
-152.6187990271204
 21
-170.8345865428429
 31
0.0
  0
LINE
  5
4FA
330
1F
100
AcDbEntity
  8
0
100
AcDbLine
 10
-153.9501234660176
 20
-172.0013840992315
 30
0.0
 11
-153.4573827511913
 21
-171.6718444445627
 31
0.0
  0
LINE
  5
4FB
330
1F
100
AcDbEntity
  8
0
100
AcDbLine
 10
-154.4808505564745
 20
-172.2636526146217
 30
0.0
 11
-153.9501234660176
 21
-172.0013840992315
 31
0.0
  0
LINE
  5
4FC
330
1F
100
AcDbEntity
  8
0
100
AcDbLine
 10
-155.6194274183924
 20
-172.5696332868751
 30
0.0
 11
-155.040478855805
 21
-172.4541569559938
 31
0.0
  0
LINE
  5
4FD
330
1F
100
AcDbEntity
  8
0
100
AcDbLine
 10
-156.2077838307873
 20
-172.6081031043586
 30
0.0
 11
-155.6194274183924
 21
-172.5696332868751
 31
0.0
  0
LINE
  5
4FE
330
1F
100
AcDbEntity
  8
0
100
AcDbLine
 10
-156.2077838307873
 20
-172.6081031043586
 30
0.0
 11
-158.4602993269227
 21
-172.6067125487812
 31
0.0
  0
LINE
  5
4FF
330
1F
100
AcDbEntity
  8
0
100
AcDbLine
 10
-144.3890955702802
 20
-154.3714251088015
 30
0.0
 11
-144.461333398015
 21
-154.1923539031993
 31
0.0
  0
LINE
  5
500
330
1F
100
AcDbEntity
  8
0
100
AcDbLine
 10
-144.414627716117
 20
-155.7478228497277
 30
0.0
 11
-144.3030030653742
 21
-155.4817599837387
 31
0.0
  0
LINE
  5
501
330
1F
100
AcDbEntity
  8
0
100
AcDbLine
 10
-146.7618742801033
 20
-153.5690824771058
 30
0.0
 11
-147.1136100405499
 21
-153.8388527541917
 31
0.0
  0
LINE
  5
502
330
1F
100
AcDbEntity
  8
0
100
AcDbLine
 10
-147.5566375667475
 20
-154.6002166599839
 30
0.0
 11
-147.6177305390614
 21
-155.0399373558294
 31
0.0
  0
LINE
  5
503
330
1F
100
AcDbEntity
  8
0
100
AcDbLine
 10
-144.7267425352677
 20
-153.8403248389879
 30
0.0
 11
-145.0741273431216
 21
-153.5701233695546
 31
0.0
  0
LINE
  5
504
330
1F
100
AcDbEntity
  8
0
100
AcDbLine
 10
-166.8084774354721
 20
-155.4678787179205
 30
0.0
 11
-166.7469523613227
 21
-155.0281388108308
 31
0.0
  0
LINE
  5
505
330
1F
100
AcDbEntity
  8
0
100
AcDbLine
 10
-147.1136100405499
 20
-153.8388527541917
 30
0.0
 11
-147.3846896432189
 21
-154.1905509101244
 31
0.0
  0
LINE
  5
506
330
1F
100
AcDbEntity
  8
0
100
AcDbLine
 10
-145.9161668503629
 20
-153.3420000851339
 30
0.0
 11
-146.3534505490415
 21
-153.3996171197536
 31
0.0
  0
LINE
  5
507
330
1F
100
AcDbEntity
  8
0
100
AcDbLine
 10
-168.4191819321318
 20
-153.3281218514952
 30
0.0
 11
-168.856531511153
 21
-153.3857388044722
 31
0.0
  0
LINE
  5
508
330
1F
100
AcDbEntity
  8
0
100
AcDbLine
 10
-147.3985076815648
 20
-155.8896764357674
 30
0.0
 11
-147.1331187961883
 21
-156.2417791618359
 31
0.0
  0
LINE
  5
509
330
1F
100
AcDbEntity
  8
0
100
AcDbLine
 10
-146.3799732227167
 20
-156.6820758031072
 30
0.0
 11
-145.9435493627879
 21
-156.7402514683823
 31
0.0
  0
LINE
  5
50A
330
1F
100
AcDbEntity
  8
0
100
AcDbLine
 10
-167.2303309327007
 20
-153.8264458992201
 30
0.0
 11
-167.5774050883464
 21
-153.5562448126661
 31
0.0
  0
LINE
  5
50B
330
1F
100
AcDbEntity
  8
0
100
AcDbLine
 10
-169.2651496337833
 20
-153.5552039216923
 30
0.0
 11
-169.6171950557347
 21
-153.8249738165099
 31
0.0
  0
LINE
  5
50C
330
1F
100
AcDbEntity
  8
0
100
AcDbLine
 10
-167.9828982171175
 20
-153.3862775999516
 30
0.0
 11
-168.4191819321318
 21
-153.3281218514952
 31
0.0
  0
LINE
  5
50D
330
1F
100
AcDbEntity
  8
0
100
AcDbLine
 10
-147.1331187961883
 20
-156.2417791618359
 30
0.0
 11
-146.7857150136543
 21
-156.5120543415152
 31
0.0
  0
LINE
  5
50E
330
1F
100
AcDbEntity
  8
0
100
AcDbLine
 10
-166.9653263927104
 20
-154.1784744645934
 30
0.0
 11
-167.2303309327007
 21
-153.8264458992201
 31
0.0
  0
LINE
  5
50F
330
1F
100
AcDbEntity
  8
0
100
AcDbLine
 10
-169.6171950557347
 20
-153.8249738165099
 30
0.0
 11
-169.8886784953744
 21
-154.1766714740735
 31
0.0
  0
LINE
  5
510
330
1F
100
AcDbEntity
  8
0
100
AcDbLine
 10
-146.3534505490415
 20
-153.3996171197536
 30
0.0
 11
-146.7618742801033
 21
-153.5690824771058
 31
0.0
  0
LINE
  5
511
330
1F
100
AcDbEntity
  8
0
100
AcDbLine
 10
-145.0741273431216
 20
-153.5701233695546
 30
0.0
 11
-145.4798160170729
 21
-153.4001559159964
 31
0.0
  0
LINE
  5
512
330
1F
100
AcDbEntity
  8
0
100
AcDbLine
 10
-147.6177305390614
 20
-155.0399373558294
 30
0.0
 11
-147.5637978801586
 21
-155.4797487415468
 31
0.0
  0
LINE
  5
513
330
1F
100
AcDbEntity
  8
0
100
AcDbLine
 10
-168.856531511153
 20
-153.3857388044722
 30
0.0
 11
-169.2651496337833
 21
-153.5552039216923
 31
0.0
  0
LINE
  5
514
330
1F
100
AcDbEntity
  8
0
100
AcDbLine
 10
-144.7459584999048
 20
-156.2432516078098
 30
0.0
 11
-144.4748978719163
 21
-155.8914797416315
 31
0.0
  0
LINE
  5
515
330
1F
100
AcDbEntity
  8
0
100
AcDbLine
 10
-145.097714512227
 20
-156.5130955467531
 30
0.0
 11
-144.7459584999048
 21
-156.2432516078098
 31
0.0
  0
LINE
  5
516
330
1F
100
AcDbEntity
  8
0
100
AcDbLine
 10
-169.8886784953744
 20
-154.1766714740735
 30
0.0
 11
-170.0610969189788
 21
-154.5863366434103
 31
0.0
  0
LINE
  5
517
330
1F
100
AcDbEntity
  8
0
100
AcDbLine
 10
-170.0610969189788
 20
-154.5863366434103
 30
0.0
 11
-170.1226949968774
 21
-155.0260567161299
 31
0.0
  0
LINE
  5
518
330
1F
100
AcDbEntity
  8
0
100
AcDbLine
 10
-144.2419831196985
 20
-155.0420194534808
 30
0.0
 11
-144.2959891474631
 21
-154.6022277215868
 31
0.0
  0
LINE
  5
519
330
1F
100
AcDbEntity
  8
0
100
AcDbLine
 10
-166.8004531202907
 20
-154.5883477021634
 30
0.0
 11
-166.9653263927104
 21
-154.1784744645934
 31
0.0
  0
LINE
  5
51A
330
1F
100
AcDbEntity
  8
0
100
AcDbLine
 10
-144.461333398015
 20
-154.1923539031993
 30
0.0
 11
-144.7267425352677
 21
-153.8403248389879
 31
0.0
  0
LINE
  5
51B
330
1F
100
AcDbEntity
  8
0
100
AcDbLine
 10
-162.1991839886579
 20
-86.70766671468664
 30
0.0
 11
-161.9687276145798
 21
-60.87008753319146
 31
0.0
  0
LINE
  5
51C
330
1F
100
AcDbEntity
  8
0
100
AcDbLine
 10
-161.9251829135273
 20
-60.284386521972
 30
0.0
 11
-161.9687276145798
 21
-60.87008753319146
 31
0.0
  0
LINE
  5
51D
330
1F
100
AcDbEntity
  8
0
100
AcDbLine
 10
-161.8057473375987
 20
-59.70878834915469
 30
0.0
 11
-161.9251829135273
 21
-60.284386521972
 31
0.0
  0
LINE
  5
51E
330
1F
100
AcDbEntity
  8
0
100
AcDbLine
 10
-161.6124707821608
 20
-59.15313901533372
 30
0.0
 11
-161.8057473375987
 21
-59.70878834915469
 31
0.0
  0
LINE
  5
51F
330
1F
100
AcDbEntity
  8
0
100
AcDbLine
 10
-161.3486656703491
 20
-58.62694163720705
 30
0.0
 11
-161.6124707821608
 21
-59.15313901533372
 31
0.0
  0
LINE
  5
520
330
1F
100
AcDbEntity
  8
0
100
AcDbLine
 10
-161.0188499082857
 20
-58.13919413281108
 30
0.0
 11
-161.3486656703491
 21
-58.62694163720705
 31
0.0
  0
LINE
  5
521
330
1F
100
AcDbEntity
  8
0
100
AcDbLine
 10
-160.6286693014274
 20
-57.69823563712939
 30
0.0
 11
-161.0188499082857
 21
-58.13919413281108
 31
0.0
  0
LINE
  5
522
330
1F
100
AcDbEntity
  8
0
100
AcDbLine
 10
-160.1848007786353
 20
-57.31160425055548
 30
0.0
 11
-160.6286693014274
 21
-57.69823563712939
 31
0.0
  0
LINE
  5
523
330
1F
100
AcDbEntity
  8
0
100
AcDbLine
 10
-159.6948380916914
 20
-56.98590852464753
 30
0.0
 11
-160.1848007786353
 21
-57.31160425055548
 31
0.0
  0
LINE
  5
524
330
1F
100
AcDbEntity
  8
0
100
AcDbLine
 10
-159.1671619497819
 20
-56.72671485244016
 30
0.0
 11
-159.6948380916914
 21
-56.98590852464753
 31
0.0
  0
LINE
  5
525
330
1F
100
AcDbEntity
  8
0
100
AcDbLine
 10
-158.6107968064876
 20
-56.5384526584774
 30
0.0
 11
-159.1671619497819
 21
-56.72671485244016
 31
0.0
  0
LINE
  5
526
330
1F
100
AcDbEntity
  8
0
100
AcDbLine
 10
-158.0352567371964
 20
-56.42433898135212
 30
0.0
 11
-158.6107968064876
 21
-56.5384526584774
 31
0.0
  0
LINE
  5
527
330
1F
100
AcDbEntity
  8
0
100
AcDbLine
 10
-157.4503830243817
 20
-56.38632371390789
 30
0.0
 11
-158.0352567371964
 21
-56.42433898135212
 31
0.0
  0
LINE
  5
528
330
1F
100
AcDbEntity
  8
0
100
AcDbLine
 10
-160.4758879877426
 20
-90.27904997758455
 30
0.0
 11
-159.9908517669645
 21
-90.60645917260315
 31
0.0
  0
LINE
  5
529
330
1F
100
AcDbEntity
  8
0
100
AcDbLine
 10
-143.8262034190411
 20
-74.6341074212079
 30
0.0
 11
-143.7661879815682
 21
-74.4916397477416
 31
0.0
  0
LINE
  5
52A
330
1F
100
AcDbEntity
  8
0
100
AcDbLine
 10
-162.056729853239
 20
-87.87237275878074
 30
0.0
 11
-161.8730905806804
 21
-88.429892378912
 31
0.0
  0
LINE
  5
52B
330
1F
100
AcDbEntity
  8
0
100
AcDbLine
 10
-169.3144314915264
 20
-74.21201843033586
 30
0.0
 11
-169.1502802250647
 21
-74.61855211644884
 31
0.0
  0
LINE
  5
52C
330
1F
100
AcDbEntity
  8
0
100
AcDbLine
 10
-159.4668331810108
 20
-90.86720178523075
 30
0.0
 11
-158.9128024752397
 21
-91.05681094783944
 31
0.0
  0
LINE
  5
52D
330
1F
100
AcDbEntity
  8
0
100
AcDbLine
 10
-158.3382446949576
 20
-91.17203818003668
 30
0.0
 11
-157.7529970237266
 21
-91.21090925853532
 31
0.0
  0
LINE
  5
52E
330
1F
100
AcDbEntity
  8
0
100
AcDbLine
 10
-146.9023054115677
 20
-74.22578478365205
 30
0.0
 11
-146.7376870044656
 21
-74.6323190434985
 31
0.0
  0
LINE
  5
52F
330
1F
100
AcDbEntity
  8
0
100
AcDbLine
 10
-169.3676541436581
 20
-73.77584839712556
 30
0.0
 11
-169.3144314915264
 21
-74.21201843033586
 31
0.0
  0
LINE
  5
530
330
1F
100
AcDbEntity
  8
0
100
AcDbLine
 10
-168.1368473879915
 20
-75.40439059041731
 30
0.0
 11
-167.702298409289
 21
-75.46208456352244
 31
0.0
  0
LINE
  5
531
330
1F
100
AcDbEntity
  8
0
100
AcDbLine
 10
-168.5407179133978
 20
-75.23577689154529
 30
0.0
 11
-168.1368473879915
 21
-75.40439059041731
 31
0.0
  0
LINE
  5
532
330
1F
100
AcDbEntity
  8
0
100
AcDbLine
 10
-144.4464162175136
 20
-75.25057727534019
 30
0.0
 11
-144.0961281465604
 21
-74.98296721793959
 31
0.0
  0
LINE
  5
533
330
1F
100
AcDbEntity
  8
0
100
AcDbLine
 10
-144.8531940730294
 20
-75.41869314142627
 30
0.0
 11
-144.4464162175136
 21
-75.25057727534019
 31
0.0
  0
LINE
  5
534
330
1F
100
AcDbEntity
  8
0
100
AcDbLine
 10
-169.1346407913699
 20
-72.93349408934925
 30
0.0
 11
-169.3063284171944
 21
-73.3397682217172
 31
0.0
  0
LINE
  5
535
330
1F
100
AcDbEntity
  8
0
100
AcDbLine
 10
-144.0961281465604
 20
-74.98296721793959
 30
0.0
 11
-143.8262034190411
 21
-74.6341074212079
 31
0.0
  0
LINE
  5
536
330
1F
100
AcDbEntity
  8
0
100
AcDbLine
 10
-146.1274151964799
 20
-75.24954468969563
 30
0.0
 11
-145.7233506831023
 21
-75.4181586265401
 31
0.0
  0
LINE
  5
537
330
1F
100
AcDbEntity
  8
0
100
AcDbLine
 10
-143.6480792201043
 20
-73.35552775877356
 30
0.0
 11
-143.7408070962892
 21
-73.12663564371381
 31
0.0
  0
LINE
  5
538
330
1F
100
AcDbEntity
  8
0
100
AcDbLine
 10
-166.8597213068908
 20
-75.23680947573253
 30
0.0
 11
-166.5091260540331
 21
-74.96919979601778
 31
0.0
  0
LINE
  5
539
330
1F
100
AcDbEntity
  8
0
100
AcDbLine
 10
-152.0556144515186
 20
-57.70349706437614
 30
0.0
 11
-152.4928035529439
 21
-57.31632486429258
 31
0.0
  0
LINE
  5
53A
330
1F
100
AcDbEntity
  8
0
100
AcDbLine
 10
-143.7661879815682
 20
-74.4916397477416
 30
0.0
 11
-143.6550350777904
 21
-74.22777937669366
 31
0.0
  0
LINE
  5
53B
330
1F
100
AcDbEntity
  8
0
100
AcDbLine
 10
-151.0292195538352
 20
-87.30184891457904
 30
0.0
 11
-150.9859449118346
 21
-86.71455870908162
 31
0.0
  0
LINE
  5
53C
330
1F
100
AcDbEntity
  8
0
100
AcDbLine
 10
-151.1485055487825
 20
-87.87907768188752
 30
0.0
 11
-151.0292195538352
 21
-87.30184891457904
 31
0.0
  0
LINE
  5
53D
330
1F
100
AcDbEntity
  8
0
100
AcDbLine
 10
-151.3417682203548
 20
-88.43636581773531
 30
0.0
 11
-151.1485055487825
 21
-87.87907768188752
 31
0.0
  0
LINE
  5
53E
330
1F
100
AcDbEntity
  8
0
100
AcDbLine
 10
-151.6057062183778
 20
-88.96417375692734
 30
0.0
 11
-151.3417682203548
 21
-88.43636581773531
 31
0.0
  0
LINE
  5
53F
330
1F
100
AcDbEntity
  8
0
100
AcDbLine
 10
-151.9358076357306
 20
-89.45346507375453
 30
0.0
 11
-151.6057062183778
 21
-88.96417375692734
 31
0.0
  0
LINE
  5
540
330
1F
100
AcDbEntity
  8
0
100
AcDbLine
 10
-152.3264269255777
 20
-89.89586147152146
 30
0.0
 11
-151.9358076357306
 21
-89.45346507375453
 31
0.0
  0
LINE
  5
541
330
1F
100
AcDbEntity
  8
0
100
AcDbLine
 10
-152.7708813221654
 20
-90.28378657281479
 30
0.0
 11
-152.3264269255777
 21
-89.89586147152146
 31
0.0
  0
LINE
  5
542
330
1F
100
AcDbEntity
  8
0
100
AcDbLine
 10
-153.2615651274282
 20
-90.610596020548
 30
0.0
 11
-152.7708813221654
 21
-90.28378657281479
 31
0.0
  0
LINE
  5
543
330
1F
100
AcDbEntity
  8
0
100
AcDbLine
 10
-153.7900799118775
 20
-90.87069163186175
 30
0.0
 11
-153.2615651274282
 21
-90.610596020548
 31
0.0
  0
LINE
  5
544
330
1F
100
AcDbEntity
  8
0
100
AcDbLine
 10
-154.3473783975687
 20
-91.05961761980834
 30
0.0
 11
-153.7900799118775
 21
-90.87069163186175
 31
0.0
  0
LINE
  5
545
330
1F
100
AcDbEntity
  8
0
100
AcDbLine
 10
-154.9239195487745
 20
-91.17413720674148
 30
0.0
 11
-154.3473783975687
 21
-91.05961761980834
 31
0.0
  0
LINE
  5
546
330
1F
100
AcDbEntity
  8
0
100
AcDbLine
 10
-155.509832196997
 20
-91.21228829303246
 30
0.0
 11
-154.9239195487745
 21
-91.17413720674148
 31
0.0
  0
LINE
  5
547
330
1F
100
AcDbEntity
  8
0
100
AcDbLine
 10
-155.509832196997
 20
-91.21228829303246
 30
0.0
 11
-157.7529970237266
 21
-91.21090925853532
 31
0.0
  0
LINE
  5
548
330
1F
100
AcDbEntity
  8
0
100
AcDbLine
 10
-143.7408070962892
 20
-73.12663564371381
 30
0.0
 11
-143.8127512299446
 21
-72.94904670718172
 31
0.0
  0
LINE
  5
549
330
1F
100
AcDbEntity
  8
0
100
AcDbLine
 10
-145.7233506831023
 20
-75.4181586265401
 30
0.0
 11
-145.2887351190642
 21
-75.47585268107193
 31
0.0
  0
LINE
  5
54A
330
1F
100
AcDbEntity
  8
0
100
AcDbLine
 10
-162.1991839886579
 20
-86.70766671468664
 30
0.0
 11
-162.1660490200008
 21
-87.2950036778969
 31
0.0
  0
LINE
  5
54B
330
1F
100
AcDbEntity
  8
0
100
AcDbLine
 10
-167.266692006015
 20
-75.40492510454906
 30
0.0
 11
-166.8597213068908
 21
-75.23680947573253
 31
0.0
  0
LINE
  5
54C
330
1F
100
AcDbEntity
  8
0
100
AcDbLine
 10
-168.1068046266818
 20
-72.1491082302759
 30
0.0
 11
-168.5137216620183
 21
-72.31717065094992
 31
0.0
  0
LINE
  5
54D
330
1F
100
AcDbEntity
  8
0
100
AcDbLine
 10
-167.702298409289
 20
-75.46208456352244
 30
0.0
 11
-167.266692006015
 21
-75.40492510454906
 31
0.0
  0
LINE
  5
54E
330
1F
100
AcDbEntity
  8
0
100
AcDbLine
 10
-168.8863816196322
 20
-74.9677395415475
 30
0.0
 11
-168.5407179133978
 21
-75.23577689154529
 31
0.0
  0
LINE
  5
54F
330
1F
100
AcDbEntity
  8
0
100
AcDbLine
 10
-166.0671657405076
 20
-74.21401302056256
 30
0.0
 11
-166.0059124142298
 21
-73.77791325655268
 31
0.0
  0
LINE
  5
550
330
1F
100
AcDbEntity
  8
0
100
AcDbLine
 10
-146.1037718131503
 20
-72.3309343302603
 30
0.0
 11
-146.4540398023115
 21
-72.59847163855184
 31
0.0
  0
LINE
  5
551
330
1F
100
AcDbEntity
  8
0
100
AcDbLine
 10
-143.5942826985809
 20
-73.79167899723751
 30
0.0
 11
-143.6480792201043
 21
-73.35552775877356
 31
0.0
  0
LINE
  5
552
330
1F
100
AcDbEntity
  8
0
100
AcDbLine
 10
-151.6730506278393
 20
-58.14492993606937
 30
0.0
 11
-152.0556144515186
 21
-57.70349706437614
 31
0.0
  0
LINE
  5
553
330
1F
100
AcDbEntity
  8
0
100
AcDbLine
 10
-166.8329765202868
 20
-72.31820292622446
 30
0.0
 11
-167.2367944279614
 21
-72.14964256605683
 31
0.0
  0
LINE
  5
554
330
1F
100
AcDbEntity
  8
0
100
AcDbLine
 10
-160.9136401636459
 20
-89.89058265135249
 30
0.0
 11
-160.4758879877426
 21
-90.27904997758455
 31
0.0
  0
LINE
  5
555
330
1F
100
AcDbEntity
  8
0
100
AcDbLine
 10
-144.0770712489713
 20
-72.59993153838059
 30
0.0
 11
-144.4230242996694
 21
-72.33196660699153
 31
0.0
  0
LINE
  5
556
330
1F
100
AcDbEntity
  8
0
100
AcDbLine
 10
-151.3516588115904
 20
-58.63307726008338
 30
0.0
 11
-151.6730506278393
 21
-58.14492993606937
 31
0.0
  0
LINE
  5
557
330
1F
100
AcDbEntity
  8
0
100
AcDbLine
 10
-167.2367944279614
 20
-72.14964256605683
 30
0.0
 11
-167.6712710064772
 21
-72.09196818155344
 31
0.0
  0
LINE
  5
558
330
1F
100
AcDbEntity
  8
0
100
AcDbLine
 10
-168.5137216620183
 20
-72.31717065094992
 30
0.0
 11
-168.8642967495385
 21
-72.5847075817096
 31
0.0
  0
LINE
  5
559
330
1F
100
AcDbEntity
  8
0
100
AcDbLine
 10
-151.0969407897031
 20
-59.15959305396895
 30
0.0
 11
-151.3516588115904
 21
-58.63307726008338
 31
0.0
  0
LINE
  5
55A
330
1F
100
AcDbEntity
  8
0
100
AcDbLine
 10
-166.2388007486003
 20
-74.62034049163435
 30
0.0
 11
-166.0671657405076
 21
-74.21401302056256
 31
0.0
  0
LINE
  5
55B
330
1F
100
AcDbEntity
  8
0
100
AcDbLine
 10
-153.5003342839592
 20
-56.73019250592747
 30
0.0
 11
-154.0534434847992
 21
-56.54124941589644
 31
0.0
  0
LINE
  5
55C
330
1F
100
AcDbEntity
  8
0
100
AcDbLine
 10
-152.4928035529439
 20
-57.31632486429258
 30
0.0
 11
-152.977138341007
 21
-56.99003113863674
 31
0.0
  0
LINE
  5
55D
330
1F
100
AcDbEntity
  8
0
100
AcDbLine
 10
-152.977138341007
 20
-56.99003113863674
 30
0.0
 11
-153.5003342839592
 21
-56.73019250592747
 31
0.0
  0
LINE
  5
55E
330
1F
100
AcDbEntity
  8
0
100
AcDbLine
 10
-146.8952043702168
 20
-73.35353334408317
 30
0.0
 11
-146.9560291722178
 21
-73.78961413489638
 31
0.0
  0
LINE
  5
55F
330
1F
100
AcDbEntity
  8
0
100
AcDbLine
 10
-161.8730905806804
 20
-88.429892378912
 30
0.0
 11
-161.6182678157635
 21
-88.95801902577864
 31
0.0
  0
LINE
  5
560
330
1F
100
AcDbEntity
  8
0
100
AcDbLine
 10
-169.3063284171944
 20
-73.3397682217172
 30
0.0
 11
-169.3676541436581
 21
-73.77584839712556
 31
0.0
  0
LINE
  5
561
330
1F
100
AcDbEntity
  8
0
100
AcDbLine
 10
-150.7703295201646
 20
-60.87696129613333
 30
0.0
 11
-150.9859449118346
 21
-86.71455870908162
 31
0.0
  0
LINE
  5
562
330
1F
100
AcDbEntity
  8
0
100
AcDbLine
 10
-157.4503830243817
 20
-56.38632371390789
 30
0.0
 11
-155.2112188117339
 21
-56.38769783383578
 31
0.0
  0
LINE
  5
563
330
1F
100
AcDbEntity
  8
0
100
AcDbLine
 10
-154.6270075008248
 20
-56.4264305440831
 30
0.0
 11
-155.2112188117339
 21
-56.38769783383578
 31
0.0
  0
LINE
  5
564
330
1F
100
AcDbEntity
  8
0
100
AcDbLine
 10
-154.0534434847992
 20
-56.54124941589644
 30
0.0
 11
-154.6270075008248
 21
-56.4264305440831
 31
0.0
  0
LINE
  5
565
330
1F
100
AcDbEntity
  8
0
100
AcDbLine
 10
-150.9132590866126
 20
-59.71547394125379
 30
0.0
 11
-151.0969407897031
 21
-59.15959305396895
 31
0.0
  0
LINE
  5
566
330
1F
100
AcDbEntity
  8
0
100
AcDbLine
 10
-150.8037620323522
 20
-60.29121282992703
 30
0.0
 11
-150.9132590866126
 21
-59.71547394125379
 31
0.0
  0
LINE
  5
567
330
1F
100
AcDbEntity
  8
0
100
AcDbLine
 10
-150.7703295201646
 20
-60.87696129613333
 30
0.0
 11
-150.8037620323522
 21
-60.29121282992703
 31
0.0
  0
LINE
  5
568
330
1F
100
AcDbEntity
  8
0
100
AcDbLine
 10
-166.5091260540331
 20
-74.96919979601778
 30
0.0
 11
-166.2388007486003
 21
-74.62034049163435
 31
0.0
  0
LINE
  5
569
330
1F
100
AcDbEntity
  8
0
100
AcDbLine
 10
-146.9560291722178
 20
-73.78961413489638
 30
0.0
 11
-146.9023054115677
 21
-74.22578478365205
 31
0.0
  0
LINE
  5
56A
330
1F
100
AcDbEntity
  8
0
100
AcDbLine
 10
-145.2615792752117
 20
-72.10573154307578
 30
0.0
 11
-145.6970475603727
 21
-72.16287167242942
 31
0.0
  0
LINE
  5
56B
330
1F
100
AcDbEntity
  8
0
100
AcDbLine
 10
-161.6182678157635
 20
-88.95801902577864
 30
0.0
 11
-161.2966174001353
 21
-89.44771083081464
 31
0.0
  0
LINE
  5
56C
330
1F
100
AcDbEntity
  8
0
100
AcDbLine
 10
-159.9908517669645
 20
-90.60645917260315
 30
0.0
 11
-159.4668331810108
 21
-90.86720178523075
 31
0.0
  0
LINE
  5
56D
330
1F
100
AcDbEntity
  8
0
100
AcDbLine
 10
-146.4540398023115
 20
-72.59847163855184
 30
0.0
 11
-146.7239833498847
 21
-72.94725863838568
 31
0.0
  0
LINE
  5
56E
330
1F
100
AcDbEntity
  8
0
100
AcDbLine
 10
-167.6712710064772
 20
-72.09196818155344
 30
0.0
 11
-168.1068046266818
 21
-72.1491082302759
 31
0.0
  0
LINE
  5
56F
330
1F
100
AcDbEntity
  8
0
100
AcDbLine
 10
-146.7376870044656
 20
-74.6323190434985
 30
0.0
 11
-146.4733870672313
 21
-74.98150696140841
 31
0.0
  0
LINE
  5
570
330
1F
100
AcDbEntity
  8
0
100
AcDbLine
 10
-144.4230242996694
 20
-72.33196660699153
 30
0.0
 11
-144.8270361339656
 21
-72.16340600896437
 31
0.0
  0
LINE
  5
571
330
1F
100
AcDbEntity
  8
0
100
AcDbLine
 10
-166.0592078494306
 20
-73.34176263359306
 30
0.0
 11
-166.22341277968
 21
-72.93528215562203
 31
0.0
  0
LINE
  5
572
330
1F
100
AcDbEntity
  8
0
100
AcDbLine
 10
-158.9128024752397
 20
-91.05681094783944
 30
0.0
 11
-158.3382446949576
 21
-91.17203818003668
 31
0.0
  0
LINE
  5
573
330
1F
100
AcDbEntity
  8
0
100
AcDbLine
 10
-162.1660490200008
 20
-87.2950036778969
 30
0.0
 11
-162.056729853239
 21
-87.87237275878074
 31
0.0
  0
LINE
  5
574
330
1F
100
AcDbEntity
  8
0
100
AcDbLine
 10
-145.2887351190642
 20
-75.47585268107193
 30
0.0
 11
-144.8531940730294
 21
-75.41869314142627
 31
0.0
  0
LINE
  5
575
330
1F
100
AcDbEntity
  8
0
100
AcDbLine
 10
-146.7239833498847
 20
-72.94725863838568
 30
0.0
 11
-146.8952043702168
 21
-73.35353334408317
 31
0.0
  0
LINE
  5
576
330
1F
100
AcDbEntity
  8
0
100
AcDbLine
 10
-145.6970475603727
 20
-72.16287167242942
 30
0.0
 11
-146.1037718131503
 21
-72.3309343302603
 31
0.0
  0
LINE
  5
577
330
1F
100
AcDbEntity
  8
0
100
AcDbLine
 10
-143.8127512299446
 20
-72.94904670718172
 30
0.0
 11
-144.0770712489713
 21
-72.59993153838059
 31
0.0
  0
LINE
  5
578
330
1F
100
AcDbEntity
  8
0
100
AcDbLine
 10
-168.8642967495385
 20
-72.5847075817096
 30
0.0
 11
-169.1346407913699
 21
-72.93349408934925
 31
0.0
  0
LINE
  5
579
330
1F
100
AcDbEntity
  8
0
100
AcDbLine
 10
-166.22341277968
 20
-72.93528215562203
 30
0.0
 11
-166.4873315504505
 21
-72.5861674794782
 31
0.0
  0
LINE
  5
57A
330
1F
100
AcDbEntity
  8
0
100
AcDbLine
 10
-146.4733870672313
 20
-74.98150696140841
 30
0.0
 11
-146.1274151964799
 21
-75.24954468969563
 31
0.0
  0
LINE
  5
57B
330
1F
100
AcDbEntity
  8
0
100
AcDbLine
 10
-161.2966174001353
 20
-89.44771083081464
 30
0.0
 11
-160.9136401636459
 21
-89.89058265135249
 31
0.0
  0
LINE
  5
57C
330
1F
100
AcDbEntity
  8
0
100
AcDbLine
 10
-144.8270361339656
 20
-72.16340600896437
 30
0.0
 11
-145.2615792752117
 21
-72.10573154307578
 31
0.0
  0
LINE
  5
57D
330
1F
100
AcDbEntity
  8
0
100
AcDbLine
 10
-166.0059124142298
 20
-73.77791325655268
 30
0.0
 11
-166.0592078494306
 21
-73.34176263359306
 31
0.0
  0
LINE
  5
57E
330
1F
100
AcDbEntity
  8
0
100
AcDbLine
 10
-143.6550350777904
 20
-74.22777937669366
 30
0.0
 11
-143.5942826985809
 21
-73.79167899723751
 31
0.0
  0
LINE
  5
57F
330
1F
100
AcDbEntity
  8
0
100
AcDbLine
 10
-169.1502802250647
 20
-74.61855211644884
 30
0.0
 11
-168.8863816196322
 21
-74.9677395415475
 31
0.0
  0
LINE
  5
580
330
1F
100
AcDbEntity
  8
0
100
AcDbLine
 10
-166.4873315504505
 20
-72.5861674794782
 30
0.0
 11
-166.8329765202868
 21
-72.31820292622446
 31
0.0
  0
LINE
  5
581
330
1F
100
AcDbEntity
  8
0
100
AcDbLine
 10
-182.3865539216837
 20
-164.9918095290954
 30
0.0
 11
-182.4094338320871
 21
-167.2997018188725
 31
0.0
  0
LINE
  5
582
330
1F
100
AcDbEntity
  8
0
100
AcDbLine
 10
-182.4094338320871
 20
-167.2997018188725
 30
0.0
 11
-182.6019742737566
 21
-186.7212202143171
 31
0.0
  0
LINE
  5
583
330
1F
100
AcDbEntity
  8
0
100
AcDbLine
 10
-182.6019742737566
 20
-186.7212202143171
 30
0.0
 11
-178.87139965237
 21
-190.5230494624768
 31
0.0
  0
LINE
  5
584
330
1F
100
AcDbEntity
  8
0
100
AcDbLine
 10
-178.87139965237
 20
-190.5230494624768
 30
0.0
 11
-173.7028708005144
 21
-190.5262430913098
 31
0.0
  0
LINE
  5
585
330
1F
100
AcDbEntity
  8
0
100
AcDbLine
 10
-173.7028708005144
 20
-190.5262430913098
 30
0.0
 11
-165.3554239290103
 21
-182.1925708592188
 31
0.0
  0
LINE
  5
586
330
1F
100
AcDbEntity
  8
0
100
AcDbLine
 10
-165.3554239290103
 20
-182.1925708592188
 30
0.0
 11
-48.14638068348052
 21
-182.2649634379365
 31
0.0
  0
LINE
  5
587
330
1F
100
AcDbEntity
  8
0
100
AcDbLine
 10
-48.14638068348052
 20
-182.2649634379365
 30
0.0
 11
-39.89975943258927
 21
-190.6089199006568
 31
0.0
  0
LINE
  5
588
330
1F
100
AcDbEntity
  8
0
100
AcDbLine
 10
-39.89975943258927
 20
-190.6089199006568
 30
0.0
 11
-34.73118535140477
 21
-190.6121135574377
 31
0.0
  0
LINE
  5
589
330
1F
100
AcDbEntity
  8
0
100
AcDbLine
 10
-34.73118535140477
 20
-190.6121135574377
 30
0.0
 11
-30.95460544972851
 21
-186.8149048316314
 31
0.0
  0
LINE
  5
58A
330
1F
100
AcDbEntity
  8
0
100
AcDbLine
 10
-30.95460544972851
 20
-186.8149048316314
 30
0.0
 11
-30.94322252626337
 21
-181.6058451278456
 31
0.0
  0
LINE
  5
58B
330
1F
100
AcDbEntity
  8
0
100
AcDbLine
 10
-30.94322252626337
 20
-181.6058451278456
 30
0.0
 11
-48.09128275497448
 21
-164.2713493117386
 31
0.0
  0
LINE
  5
58C
330
1F
100
AcDbEntity
  8
0
100
AcDbLine
 10
-30.83249636857311
 20
-130.9352798812642
 30
0.0
 11
-30.76041538704373
 21
-97.94954142696909
 31
0.0
  0
LINE
  5
58D
330
1F
100
AcDbEntity
  8
0
100
AcDbLine
 10
-30.76041538704373
 20
-97.94954142696909
 30
0.0
 11
-47.83557182210242
 21
-80.76251370461829
 31
0.0
  0
LINE
  5
58E
330
1F
100
AcDbEntity
  8
0
100
AcDbLine
 10
-30.65063040374835
 20
-47.70967692521968
 30
0.0
 11
-30.6394082812548
 21
-42.57420305086761
 31
0.0
  0
LINE
  5
58F
330
1F
100
AcDbEntity
  8
0
100
AcDbLine
 10
-30.6394082812548
 20
-42.57420305086761
 30
0.0
 11
-34.37036388829471
 21
-38.8294731383942
 31
0.0
  0
LINE
  5
590
330
1F
100
AcDbEntity
  8
0
100
AcDbLine
 10
-34.37036388829471
 20
-38.8294731383942
 30
0.0
 11
-39.49896478816639
 21
-38.82632868944419
 31
0.0
  0
LINE
  5
591
330
1F
100
AcDbEntity
  8
0
100
AcDbLine
 10
-39.49896478816639
 20
-38.82632868944419
 30
0.0
 11
-47.73230645863864
 21
-47.03861240503385
 31
0.0
  0
LINE
  5
592
330
1F
100
AcDbEntity
  8
0
100
AcDbLine
 10
-47.73230645863864
 20
-47.03861240503385
 30
0.0
 11
-164.1334055121424
 21
-46.96721442176683
 31
0.0
  0
LINE
  5
593
330
1F
100
AcDbEntity
  8
0
100
AcDbLine
 10
-164.1334055121424
 20
-46.96721442176683
 30
0.0
 11
-172.2672621579339
 21
-38.74492576077462
 31
0.0
  0
LINE
  5
594
330
1F
100
AcDbEntity
  8
0
100
AcDbLine
 10
-172.2672621579339
 20
-38.74492576077462
 30
0.0
 11
-177.395818525367
 21
-38.74178133912778
 31
0.0
  0
LINE
  5
595
330
1F
100
AcDbEntity
  8
0
100
AcDbLine
 10
-177.395818525367
 20
-38.74178133912778
 30
0.0
 11
-181.1720189200922
 21
-42.4818907254244
 31
0.0
  0
LINE
  5
596
330
1F
100
AcDbEntity
  8
0
100
AcDbLine
 10
-181.1720189200922
 20
-42.4818907254244
 30
0.0
 11
-181.3621139645014
 21
-61.65674235588197
 31
0.0
  0
LINE
  5
597
330
1F
100
AcDbEntity
  8
0
100
AcDbLine
 10
-181.3621139645014
 20
-61.65674235588197
 30
0.0
 11
-181.5996867199821
 21
-85.620661835996
 31
0.0
  0
LINE
  5
598
330
1F
100
AcDbEntity
  8
0
100
AcDbLine
 10
-181.5996867199821
 20
-85.620661835996
 30
0.0
 11
-168.8834634418857
 21
-98.5125115173731
 31
0.0
  0
LINE
  5
599
330
1F
100
AcDbEntity
  8
0
100
AcDbLine
 10
-168.8834634418857
 20
-98.5125115173731
 30
0.0
 11
-169.1767695874005
 21
-130.1999390430453
 31
0.0
  0
LINE
  5
59A
330
1F
100
AcDbEntity
  8
0
100
AcDbLine
 10
-169.1767695874005
 20
-130.1999390430453
 30
0.0
 11
-182.1698687165648
 21
-143.1348133533664
 31
0.0
  0
LINE
  5
59B
330
1F
100
AcDbEntity
  8
0
100
AcDbLine
 10
-182.1698687165648
 20
-143.1348133533664
 30
0.0
 11
-182.3865539216837
 21
-164.9918095290954
 31
0.0
  0
LINE
  5
59C
330
1F
100
AcDbEntity
  8
0
100
AcDbLine
 10
-66.81051116773534
 20
-83.81009195400604
 30
0.0
 11
-66.87031152418227
 21
-98.63513244734565
 31
0.0
  0
LINE
  5
59D
330
1F
100
AcDbEntity
  8
0
100
AcDbLine
 10
-89.53694255316549
 20
-106.4992164380393
 30
0.0
 11
-66.81051116773534
 21
-83.81009195400604
 31
0.0
  0
LINE
  5
59E
330
1F
100
AcDbEntity
  8
0
100
AcDbLine
 10
-47.78674705004521
 20
-64.81755657082773
 30
0.0
 11
-30.65063040374835
 21
-47.70967692521968
 31
0.0
  0
LINE
  5
59F
330
1F
100
AcDbEntity
  8
0
100
AcDbLine
 10
-47.83557182210242
 20
-80.76251370461829
 30
0.0
 11
-47.78674705004521
 21
-64.81755657082773
 31
0.0
  0
LINE
  5
5A0
330
1F
100
AcDbEntity
  8
0
100
AcDbLine
 10
-48.04203928836029
 20
-148.1896569412716
 30
0.0
 11
-30.83249636857311
 21
-130.9352798812642
 31
0.0
  0
LINE
  5
5A1
330
1F
100
AcDbEntity
  8
0
100
AcDbLine
 10
-48.04203928836029
 20
-148.1896569412716
 30
0.0
 11
-48.09128275497448
 21
-164.2713493117386
 31
0.0
  0
LINE
  5
5A2
330
1F
100
AcDbEntity
  8
0
100
AcDbLine
 10
199.0862226841179
 20
-152.7246533762161
 30
0.0
 11
199.6876982538971
 21
-152.974795620992
 31
0.0
  0
LINE
  5
5A3
330
1F
100
AcDbEntity
  8
0
100
AcDbLine
 10
199.6876982538971
 20
-152.974795620992
 30
0.0
 11
200.2059668832982
 21
-153.3724571566883
 31
0.0
  0
LINE
  5
5A4
330
1F
100
AcDbEntity
  8
0
100
AcDbLine
 10
200.2059668832982
 20
-153.3724571566883
 30
0.0
 11
200.6057138098851
 21
-153.8905539545543
 31
0.0
  0
LINE
  5
5A5
330
1F
100
AcDbEntity
  8
0
100
AcDbLine
 10
200.6057138098851
 20
-153.8905539545543
 30
0.0
 11
200.85969284252
 21
-154.4937945134684
 31
0.0
  0
LINE
  5
5A6
330
1F
100
AcDbEntity
  8
0
100
AcDbLine
 10
200.85969284252
 20
-154.4937945134684
 30
0.0
 11
200.9505842413294
 21
-155.141080646943
 31
0.0
  0
LINE
  5
5A7
330
1F
100
AcDbEntity
  8
0
100
AcDbLine
 10
200.9505842413294
 20
-155.141080646943
 30
0.0
 11
200.8721781065199
 21
-155.7883051316419
 31
0.0
  0
LINE
  5
5A8
330
1F
100
AcDbEntity
  8
0
100
AcDbLine
 10
200.8721781065199
 20
-155.7883051316419
 30
0.0
 11
200.629801806193
 21
-156.3913563999297
 31
0.0
  0
LINE
  5
5A9
330
1F
100
AcDbEntity
  8
0
100
AcDbLine
 10
200.629801806193
 20
-156.3913563999297
 30
0.0
 11
200.2399611806392
 21
-156.9091258182426
 31
0.0
  0
LINE
  5
5AA
330
1F
100
AcDbEntity
  8
0
100
AcDbLine
 10
142.2889998692824
 20
-247.5241158883029
 30
0.0
 11
142.3697176209996
 21
-246.8708159304751
 31
0.0
  0
LINE
  5
5AB
330
1F
100
AcDbEntity
  8
0
100
AcDbLine
 10
142.3697176209996
 20
-246.8708159304751
 30
0.0
 11
142.6150148696281
 21
-246.2621817127243
 31
0.0
  0
LINE
  5
5AC
330
1F
100
AcDbEntity
  8
0
100
AcDbLine
 10
142.6150148696281
 20
-246.2621817127243
 30
0.0
 11
143.0081632381689
 21
-245.7396787957144
 31
0.0
  0
LINE
  5
5AD
330
1F
100
AcDbEntity
  8
0
100
AcDbLine
 10
143.0081632381689
 20
-245.7396787957144
 30
0.0
 11
143.5223659347553
 21
-245.3388987131302
 31
0.0
  0
LINE
  5
5AE
330
1F
100
AcDbEntity
  8
0
100
AcDbLine
 10
143.5223659347553
 20
-245.3388987131302
 30
0.0
 11
144.1225850822286
 21
-245.0871378014916
 31
0.0
  0
LINE
  5
5AF
330
1F
100
AcDbEntity
  8
0
100
AcDbLine
 10
144.1225850822286
 20
-245.0871378014916
 30
0.0
 11
144.7679283691961
 21
-245.0015413297895
 31
0.0
  0
LINE
  5
5B0
330
1F
100
AcDbEntity
  8
0
100
AcDbLine
 10
144.8319401825216
 20
-159.7600082567841
 30
0.0
 11
145.4329386928288
 21
-160.0103302228785
 31
0.0
  0
LINE
  5
5B1
330
1F
100
AcDbEntity
  8
0
100
AcDbLine
 10
145.4329386928288
 20
-160.0103302228785
 30
0.0
 11
145.950291637965
 21
-160.4082774737604
 31
0.0
  0
LINE
  5
5B2
330
1F
100
AcDbEntity
  8
0
100
AcDbLine
 10
145.950291637965
 20
-160.4082774737604
 30
0.0
 11
146.3487466168131
 21
-160.926746526853
 31
0.0
  0
LINE
  5
5B3
330
1F
100
AcDbEntity
  8
0
100
AcDbLine
 10
146.3487466168131
 20
-160.926746526853
 30
0.0
 11
146.601145435211
 21
-161.5304205296382
 31
0.0
  0
LINE
  5
5B4
330
1F
100
AcDbEntity
  8
0
100
AcDbLine
 10
146.601145435211
 20
-161.5304205296382
 30
0.0
 11
146.690276001702
 21
-162.1781717697156
 31
0.0
  0
LINE
  5
5B5
330
1F
100
AcDbEntity
  8
0
100
AcDbLine
 10
146.690276001702
 20
-162.1781717697156
 30
0.0
 11
146.6100483911507
 21
-162.8258613320947
 31
0.0
  0
LINE
  5
5B6
330
1F
100
AcDbEntity
  8
0
100
AcDbLine
 10
146.6100483911507
 20
-162.8258613320947
 30
0.0
 11
146.3659141026968
 21
-163.4293459502412
 31
0.0
  0
LINE
  5
5B7
330
1F
100
AcDbEntity
  8
0
100
AcDbLine
 10
146.3659141026968
 20
-163.4293459502412
 30
0.0
 11
145.9744988045972
 21
-163.9474874459181
 31
0.0
  0
LINE
  5
5B8
330
1F
100
AcDbEntity
  8
0
100
AcDbLine
 10
146.5620928079001
 20
-249.311970596749
 30
0.0
 11
146.0478482168358
 21
-249.7129125164055
 31
0.0
  0
LINE
  5
5B9
330
1F
100
AcDbEntity
  8
0
100
AcDbLine
 10
146.0478482168358
 20
-249.7129125164055
 30
0.0
 11
145.4475126220636
 21
-249.9647917946934
 31
0.0
  0
LINE
  5
5BA
330
1F
100
AcDbEntity
  8
0
100
AcDbLine
 10
145.4475126220636
 20
-249.9647917946934
 30
0.0
 11
144.8020095369364
 21
-250.0504314463724
 31
0.0
  0
LINE
  5
5BB
330
1F
100
AcDbEntity
  8
0
100
AcDbLine
 10
144.8020095369364
 20
-250.0504314463724
 30
0.0
 11
144.1553448976134
 21
-249.9639909554407
 31
0.0
  0
LINE
  5
5BC
330
1F
100
AcDbEntity
  8
0
100
AcDbLine
 10
144.1553448976134
 20
-249.9639909554407
 30
0.0
 11
143.5516038515251
 21
-249.7113654534221
 31
0.0
  0
LINE
  5
5BD
330
1F
100
AcDbEntity
  8
0
100
AcDbLine
 10
143.5516038515251
 20
-249.7113654534221
 30
0.0
 11
143.0319421334374
 21
-249.3097828084925
 31
0.0
  0
LINE
  5
5BE
330
1F
100
AcDbEntity
  8
0
100
AcDbLine
 10
143.0319421334374
 20
-249.3097828084925
 30
0.0
 11
142.6317782131442
 21
-248.7866263962672
 31
0.0
  0
LINE
  5
5BF
330
1F
100
AcDbEntity
  8
0
100
AcDbLine
 10
142.6317782131442
 20
-248.7866263962672
 30
0.0
 11
142.3783784114859
 21
-248.1775646308419
 31
0.0
  0
LINE
  5
5C0
330
1F
100
AcDbEntity
  8
0
100
AcDbLine
 10
142.3783784114859
 20
-248.1775646308419
 30
0.0
 11
142.2889998692824
 21
-247.5241158883029
 31
0.0
  0
LINE
  5
5C1
330
1F
100
AcDbEntity
  8
0
100
AcDbLine
 10
200.2399611806392
 20
-156.9091258182426
 30
0.0
 11
199.7292188338539
 21
-157.306312303359
 31
0.0
  0
LINE
  5
5C2
330
1F
100
AcDbEntity
  8
0
100
AcDbLine
 10
199.7292188338539
 20
-157.306312303359
 30
0.0
 11
199.1323851135606
 21
-157.5558323079715
 31
0.0
  0
LINE
  5
5C3
330
1F
100
AcDbEntity
  8
0
100
AcDbLine
 10
199.1323851135606
 20
-157.5558323079715
 30
0.0
 11
198.4901447452196
 21
-157.640669793243
 31
0.0
  0
LINE
  5
5C4
330
1F
100
AcDbEntity
  8
0
100
AcDbLine
 10
198.4901447452196
 20
-157.640669793243
 30
0.0
 11
197.8462811550119
 21
-157.5550389699745
 31
0.0
  0
LINE
  5
5C5
330
1F
100
AcDbEntity
  8
0
100
AcDbLine
 10
197.8462811550119
 20
-157.5550389699745
 30
0.0
 11
197.2446884652037
 21
-157.3047797311329
 31
0.0
  0
LINE
  5
5C6
330
1F
100
AcDbEntity
  8
0
100
AcDbLine
 10
197.2446884652037
 20
-157.3047797311329
 30
0.0
 11
196.7263759253283
 21
-156.9069585217617
 31
0.0
  0
LINE
  5
5C7
330
1F
100
AcDbEntity
  8
0
100
AcDbLine
 10
196.7263759253283
 20
-156.9069585217617
 30
0.0
 11
196.3266700636019
 21
-156.3887021550424
 31
0.0
  0
LINE
  5
5C8
330
1F
100
AcDbEntity
  8
0
100
AcDbLine
 10
196.3266700636019
 20
-156.3887021550424
 30
0.0
 11
196.0728060678632
 21
-155.7853448884422
 31
0.0
  0
LINE
  5
5C9
330
1F
100
AcDbEntity
  8
0
100
AcDbLine
 10
196.0728060678632
 20
-155.7853448884422
 30
0.0
 11
195.9820728539419
 21
-155.1380161801784
 31
0.0
  0
LINE
  5
5CA
330
1F
100
AcDbEntity
  8
0
100
AcDbLine
 10
195.9820728539419
 20
-155.1380161801784
 30
0.0
 11
196.0606379361203
 21
-154.4908346614662
 31
0.0
  0
LINE
  5
5CB
330
1F
100
AcDbEntity
  8
0
100
AcDbLine
 10
196.0606379361203
 20
-154.4908346614662
 30
0.0
 11
196.303131356478
 21
-153.8879003872418
 31
0.0
  0
LINE
  5
5CC
330
1F
100
AcDbEntity
  8
0
100
AcDbLine
 10
196.303131356478
 20
-153.8879003872418
 30
0.0
 11
196.6930158925063
 21
-153.3702906426035
 31
0.0
  0
LINE
  5
5CD
330
1F
100
AcDbEntity
  8
0
100
AcDbLine
 10
196.6930158925063
 20
-153.3702906426035
 30
0.0
 11
197.2037171744335
 21
-152.9732637263417
 31
0.0
  0
LINE
  5
5CE
330
1F
100
AcDbEntity
  8
0
100
AcDbLine
 10
197.2037171744335
 20
-152.9732637263417
 30
0.0
 11
197.8004358578317
 21
-152.7238604294168
 31
0.0
  0
LINE
  5
5CF
330
1F
100
AcDbEntity
  8
0
100
AcDbLine
 10
197.8004358578317
 20
-152.7238604294168
 30
0.0
 11
198.4425180412805
 21
-152.6390655189367
 31
0.0
  0
LINE
  5
5D0
330
1F
100
AcDbEntity
  8
0
100
AcDbLine
 10
144.1882414875297
 20
-159.6743589071695
 30
0.0
 11
144.8319401825216
 21
-159.7600082567841
 31
0.0
  0
LINE
  5
5D1
330
1F
100
AcDbEntity
  8
0
100
AcDbLine
 10
145.9744988045972
 20
-163.9474874459181
 30
0.0
 11
145.4624724532405
 21
-164.3449593622479
 31
0.0
  0
LINE
  5
5D2
330
1F
100
AcDbEntity
  8
0
100
AcDbLine
 10
145.4624724532405
 20
-164.3449593622479
 30
0.0
 11
144.8647329462824
 21
-164.5946586830657
 31
0.0
  0
LINE
  5
5D3
330
1F
100
AcDbEntity
  8
0
100
AcDbLine
 10
144.8647329462824
 20
-164.5946586830657
 30
0.0
 11
144.2220267776352
 21
-164.6795571368589
 31
0.0
  0
LINE
  5
5D4
330
1F
100
AcDbEntity
  8
0
100
AcDbLine
 10
144.2220267776352
 20
-164.6795571368589
 30
0.0
 11
143.5781691401517
 21
-164.5938647749379
 31
0.0
  0
LINE
  5
5D5
330
1F
100
AcDbEntity
  8
0
100
AcDbLine
 10
143.5781691401517
 20
-164.5938647749379
 30
0.0
 11
142.977053749942
 21
-164.3434256886541
 31
0.0
  0
LINE
  5
5D6
330
1F
100
AcDbEntity
  8
0
100
AcDbLine
 10
142.977053749942
 20
-164.3434256886541
 30
0.0
 11
142.4596573053656
 21
-163.9453185919631
 31
0.0
  0
LINE
  5
5D7
330
1F
100
AcDbEntity
  8
0
100
AcDbLine
 10
142.4596573053656
 20
-163.9453185919631
 30
0.0
 11
142.0612438631813
 21
-163.4266897979963
 31
0.0
  0
LINE
  5
5D8
330
1F
100
AcDbEntity
  8
0
100
AcDbLine
 10
142.0612438631813
 20
-163.4266897979963
 30
0.0
 11
141.8089604878311
 21
-162.8228989617105
 31
0.0
  0
LINE
  5
5D9
330
1F
100
AcDbEntity
  8
0
100
AcDbLine
 10
141.8089604878311
 20
-162.8228989617105
 30
0.0
 11
141.7199883379026
 21
-162.1751051009468
 31
0.0
  0
LINE
  5
5DA
330
1F
100
AcDbEntity
  8
0
100
AcDbLine
 10
199.3223417825309
 20
-245.0353436762068
 30
0.0
 11
199.9690866999594
 21
-245.1217408871937
 31
0.0
  0
LINE
  5
5DB
330
1F
100
AcDbEntity
  8
0
100
AcDbLine
 10
200.6153241127369
 20
-249.7467310492563
 30
0.0
 11
200.0156857153494
 21
-249.9986111930121
 31
0.0
  0
LINE
  5
5DC
330
1F
100
AcDbEntity
  8
0
100
AcDbLine
 10
200.0156857153494
 20
-249.9986111930121
 30
0.0
 11
199.3704189209363
 21
-250.0842511389547
 31
0.0
  0
LINE
  5
5DD
330
1F
100
AcDbEntity
  8
0
100
AcDbLine
 10
199.3704189209363
 20
-250.0842511389547
 30
0.0
 11
198.7235135509267
 21
-249.9978103510078
 31
0.0
  0
LINE
  5
5DE
330
1F
100
AcDbEntity
  8
0
100
AcDbLine
 10
198.7235135509267
 20
-249.9978103510078
 30
0.0
 11
198.1190711702788
 21
-249.7451839809569
 31
0.0
  0
LINE
  5
5DF
330
1F
100
AcDbEntity
  8
0
100
AcDbLine
 10
198.1190711702788
 20
-249.7451839809569
 30
0.0
 11
197.5982953414587
 21
-249.3435999561948
 31
0.0
  0
LINE
  5
5E0
330
1F
100
AcDbEntity
  8
0
100
AcDbLine
 10
197.5982953414587
 20
-249.3435999561948
 30
0.0
 11
197.1966805039386
 21
-248.8204417464538
 31
0.0
  0
LINE
  5
5E1
330
1F
100
AcDbEntity
  8
0
100
AcDbLine
 10
197.1966805039386
 20
-248.8204417464538
 30
0.0
 11
196.94159190098
 21
-248.2113778884099
 31
0.0
  0
LINE
  5
5E2
330
1F
100
AcDbEntity
  8
0
100
AcDbLine
 10
196.94159190098
 20
-248.2113778884099
 30
0.0
 11
196.8504017951537
 21
-247.5579269008197
 31
0.0
  0
LINE
  5
5E3
330
1F
100
AcDbEntity
  8
0
100
AcDbLine
 10
141.7199883379026
 20
-162.1751051009468
 30
0.0
 11
141.8003748909425
 21
-161.5274585508739
 31
0.0
  0
LINE
  5
5E4
330
1F
100
AcDbEntity
  8
0
100
AcDbLine
 10
141.8003748909425
 20
-161.5274585508739
 30
0.0
 11
142.0446260592986
 21
-160.9240910529133
 31
0.0
  0
LINE
  5
5E5
330
1F
100
AcDbEntity
  8
0
100
AcDbLine
 10
142.0446260592986
 20
-160.9240910529133
 30
0.0
 11
142.4360848568411
 21
-160.4061094030445
 31
0.0
  0
LINE
  5
5E6
330
1F
100
AcDbEntity
  8
0
100
AcDbLine
 10
142.4360848568411
 20
-160.4061094030445
 30
0.0
 11
142.9480696715372
 21
-160.0087972275906
 31
0.0
  0
LINE
  5
5E7
330
1F
100
AcDbEntity
  8
0
100
AcDbLine
 10
142.9480696715372
 20
-160.0087972275906
 30
0.0
 11
143.5456937354477
 21
-159.759214740275
 31
0.0
  0
LINE
  5
5E8
330
1F
100
AcDbEntity
  8
0
100
AcDbLine
 10
143.5456937354477
 20
-159.759214740275
 30
0.0
 11
144.1882414875297
 21
-159.6743589071695
 31
0.0
  0
LINE
  5
5E9
330
1F
100
AcDbEntity
  8
0
100
AcDbLine
 10
144.7679283691961
 20
-245.0015413297895
 30
0.0
 11
145.4144326772879
 21
-245.0879382439856
 31
0.0
  0
LINE
  5
5EA
330
1F
100
AcDbEntity
  8
0
100
AcDbLine
 10
145.4144326772879
 20
-245.0879382439856
 30
0.0
 11
146.0180558196978
 21
-245.3404450889079
 31
0.0
  0
LINE
  5
5EB
330
1F
100
AcDbEntity
  8
0
100
AcDbLine
 10
146.0180558196978
 20
-245.3404450889079
 30
0.0
 11
146.5376736538555
 21
-245.7418657904533
 31
0.0
  0
LINE
  5
5EC
330
1F
100
AcDbEntity
  8
0
100
AcDbLine
 10
146.5376736538555
 20
-245.7418657904533
 30
0.0
 11
146.9378794686287
 21
-246.2648603656076
 31
0.0
  0
LINE
  5
5ED
330
1F
100
AcDbEntity
  8
0
100
AcDbLine
 10
146.9378794686287
 20
-246.2648603656076
 30
0.0
 11
147.1913957175858
 21
-246.873803764387
 31
0.0
  0
LINE
  5
5EE
330
1F
100
AcDbEntity
  8
0
100
AcDbLine
 10
147.1913957175858
 20
-246.873803764387
 30
0.0
 11
147.2809340579459
 21
-247.5272093269496
 31
0.0
  0
LINE
  5
5EF
330
1F
100
AcDbEntity
  8
0
100
AcDbLine
 10
147.2809340579459
 20
-247.5272093269496
 30
0.0
 11
147.2003766374584
 21
-248.1805528615113
 31
0.0
  0
LINE
  5
5F0
330
1F
100
AcDbEntity
  8
0
100
AcDbLine
 10
147.2003766374584
 20
-248.1805528615113
 30
0.0
 11
146.9551972925081
 21
-248.7893057363561
 31
0.0
  0
LINE
  5
5F1
330
1F
100
AcDbEntity
  8
0
100
AcDbLine
 10
146.9551972925081
 20
-248.7893057363561
 30
0.0
 11
146.5620928079001
 21
-249.311970596749
 31
0.0
  0
LINE
  5
5F2
330
1F
100
AcDbEntity
  8
0
100
AcDbLine
 10
196.8504017951537
 20
-247.5579269008197
 30
0.0
 11
196.9293086878866
 21
-246.9046246985263
 31
0.0
  0
LINE
  5
5F3
330
1F
100
AcDbEntity
  8
0
100
AcDbLine
 10
196.9293086878866
 20
-246.9046246985263
 30
0.0
 11
197.1729191770827
 21
-246.2959883898301
 31
0.0
  0
LINE
  5
5F4
330
1F
100
AcDbEntity
  8
0
100
AcDbLine
 10
197.1729191770827
 20
-246.2959883898301
 30
0.0
 11
197.5646198027041
 21
-245.7734836778273
 31
0.0
  0
LINE
  5
5F5
330
1F
100
AcDbEntity
  8
0
100
AcDbLine
 10
197.5646198027041
 20
-245.7734836778273
 30
0.0
 11
198.077712389316
 21
-245.3727022184471
 31
0.0
  0
LINE
  5
5F6
330
1F
100
AcDbEntity
  8
0
100
AcDbLine
 10
198.077712389316
 20
-245.3727022184471
 30
0.0
 11
198.6772346671268
 21
-245.1209404419498
 31
0.0
  0
LINE
  5
5F7
330
1F
100
AcDbEntity
  8
0
100
AcDbLine
 10
198.6772346671268
 20
-245.1209404419498
 30
0.0
 11
199.3223417825309
 21
-245.0353436762068
 31
0.0
  0
LINE
  5
5F8
330
1F
100
AcDbEntity
  8
0
100
AcDbLine
 10
198.4425180412805
 20
-152.6390655189367
 30
0.0
 11
199.0862226841179
 21
-152.7246533762161
 31
0.0
  0
LINE
  5
5F9
330
1F
100
AcDbEntity
  8
0
100
AcDbLine
 10
199.9690866999594
 20
-245.1217408871937
 30
0.0
 11
200.5734108475972
 21
-245.3742485995367
 31
0.0
  0
LINE
  5
5FA
330
1F
100
AcDbEntity
  8
0
100
AcDbLine
 10
200.5734108475972
 20
-245.3742485995367
 30
0.0
 11
201.0941423434156
 21
-245.7756706800799
 31
0.0
  0
LINE
  5
5FB
330
1F
100
AcDbEntity
  8
0
100
AcDbLine
 10
201.0941423434156
 20
-245.7756706800799
 30
0.0
 11
201.4957986269347
 21
-246.2986670519155
 31
0.0
  0
LINE
  5
5FC
330
1F
100
AcDbEntity
  8
0
100
AcDbLine
 10
201.4957986269347
 20
-246.2986670519155
 30
0.0
 11
201.7510033494698
 21
-246.9076125427027
 31
0.0
  0
LINE
  5
5FD
330
1F
100
AcDbEntity
  8
0
100
AcDbLine
 10
201.7510033494698
 20
-246.9076125427027
 30
0.0
 11
201.8423531343035
 21
-247.5610203500941
 31
0.0
  0
LINE
  5
5FE
330
1F
100
AcDbEntity
  8
0
100
AcDbLine
 10
201.8423531343035
 20
-247.5610203500941
 30
0.0
 11
201.7636066941492
 21
-248.2143661293468
 31
0.0
  0
LINE
  5
5FF
330
1F
100
AcDbEntity
  8
0
100
AcDbLine
 10
201.7636066941492
 20
-248.2143661293468
 30
0.0
 11
201.5201144379644
 21
-248.8231210957489
 31
0.0
  0
LINE
  5
600
330
1F
100
AcDbEntity
  8
0
100
AcDbLine
 10
201.5201144379644
 20
-248.8231210957489
 30
0.0
 11
201.128458145346
 21
-249.3457877519688
 31
0.0
  0
LINE
  5
601
330
1F
100
AcDbEntity
  8
0
100
AcDbLine
 10
201.128458145346
 20
-249.3457877519688
 30
0.0
 11
200.6153241127369
 21
-249.7467310492563
 31
0.0
  0
LINE
  5
602
330
1F
100
AcDbEntity
  8
0
100
AcDbLine
 10
73.48201429934635
 20
-35.70554138112348
 30
0.0
 11
73.8760282819864
 21
-36.21743240392779
 31
0.0
  0
LINE
  5
603
330
1F
100
AcDbEntity
  8
0
100
AcDbLine
 10
126.9424336360783
 20
-35.34572879476029
 30
0.0
 11
127.4561219597893
 21
-35.7386285773182
 31
0.0
  0
LINE
  5
604
330
1F
100
AcDbEntity
  8
0
100
AcDbLine
 10
128.3568854994019
 20
-120.5038531435254
 30
0.0
 11
128.6082105330744
 21
-121.1050391350703
 31
0.0
  0
LINE
  5
605
330
1F
100
AcDbEntity
  8
0
100
AcDbLine
 10
126.2019843178085
 20
-119.25662693108
 30
0.0
 11
126.8442768003851
 21
-119.3419233084621
 31
0.0
  0
LINE
  5
606
330
1F
100
AcDbEntity
  8
0
100
AcDbLine
 10
127.9597274863215
 20
-119.9875208728792
 30
0.0
 11
128.3568854994019
 21
-120.5038531435254
 31
0.0
  0
LINE
  5
607
330
1F
100
AcDbEntity
  8
0
100
AcDbLine
 10
76.82291268811406
 20
-3.817472900526155
 30
0.0
 11
77.59484287237537
 21
-3.399857294225975
 31
0.0
  0
LINE
  5
608
330
1F
100
AcDbEntity
  8
0
100
AcDbLine
 10
105.6479849647574
 20
-18.56593872351624
 30
0.0
 11
106.6624513104605
 21
-17.78552457856857
 31
0.0
  0
LINE
  5
609
330
1F
100
AcDbEntity
  8
0
100
AcDbLine
 10
123.9642752381827
 20
-35.73648800617129
 30
0.0
 11
124.4733749248729
 21
-35.34421524342376
 31
0.0
  0
LINE
  5
60A
330
1F
100
AcDbEntity
  8
0
100
AcDbLine
 10
127.4561219597893
 20
-35.7386285773182
 30
0.0
 11
127.8515556100943
 21
-36.25052133989193
 31
0.0
  0
LINE
  5
60B
330
1F
100
AcDbEntity
  8
0
100
AcDbLine
 10
77.54514691444803
 20
3.955772130463661
 30
0.0
 11
76.77716925089344
 21
4.364978199603235
 31
0.0
  0
LINE
  5
60C
330
1F
100
AcDbEntity
  8
0
100
AcDbLine
 10
127.9806420635016
 20
-123.5121434693986
 30
0.0
 11
127.4693079471233
 21
-123.9079769825947
 31
0.0
  0
LINE
  5
60D
330
1F
100
AcDbEntity
  8
0
100
AcDbLine
 10
124.4981137698613
 20
-39.62385884181842
 30
0.0
 11
123.9843826473603
 21
-39.23080224525767
 31
0.0
  0
LINE
  5
60E
330
1F
100
AcDbEntity
  8
0
100
AcDbLine
 10
126.8725729363855
 20
-124.1566470108618
 30
0.0
 11
126.2311150335746
 21
-124.2411954993871
 31
0.0
  0
LINE
  5
60F
330
1F
100
AcDbEntity
  8
0
100
AcDbLine
 10
69.60662799493585
 20
-38.68565544624516
 30
0.0
 11
69.35816829812661
 21
-38.0895261042945
 31
0.0
  0
LINE
  5
610
330
1F
100
AcDbEntity
  8
0
100
AcDbLine
 10
71.39854199409906
 20
2.738962382850947
 30
0.0
 11
70.99048412759765
 21
1.974162946018379
 31
0.0
  0
LINE
  5
611
330
1F
100
AcDbEntity
  8
0
100
AcDbLine
 10
73.88388990976932
 20
-38.68827789409026
 30
0.0
 11
73.49306190050663
 21
-39.19984451156029
 31
0.0
  0
LINE
  5
612
330
1F
100
AcDbEntity
  8
0
100
AcDbLine
 10
72.65542068924466
 20
-258.7854853398632
 30
0.0
 11
66.88622018137659
 21
-258.7819081857456
 31
0.0
  0
LINE
  5
613
330
1F
100
AcDbEntity
  8
0
100
AcDbLine
 10
128.1017823290859
 20
-36.84653809065315
 30
0.0
 11
128.1897381856452
 21
-37.48607272485597
 31
0.0
  0
LINE
  5
614
330
1F
100
AcDbEntity
  8
0
100
AcDbLine
 10
82.69101056412197
 20
-1.377549655279198
 30
0.0
 11
79.19788246082267
 21
-1.375412074574416
 31
0.0
  0
LINE
  5
615
330
1F
100
AcDbEntity
  8
0
100
AcDbLine
 10
52.80747028241332
 20
-18.87506558812126
 30
0.0
 11
66.21669336585752
 21
-18.88327860713215
 31
0.0
  0
LINE
  5
616
330
1F
100
AcDbEntity
  8
0
100
AcDbLine
 10
53.0940127798987
 20
-155.2204776781265
 30
0.0
 11
46.22988860575882
 21
-155.2162440029
 31
0.0
  0
LINE
  5
617
330
1F
100
AcDbEntity
  8
0
100
AcDbLine
 10
158.9506686720907
 20
-17.15915302086004
 30
0.0
 11
164.4935697468678
 21
-11.5798694345579
 31
0.0
  0
LINE
  5
618
330
1F
100
AcDbEntity
  8
0
100
AcDbLine
 10
69.87713367204665
 20
-130.0075026279961
 30
0.0
 11
69.62750054038341
 21
-129.4057691685944
 31
0.0
  0
LINE
  5
619
330
1F
100
AcDbEntity
  8
0
100
AcDbLine
 10
69.62369272865412
 20
-128.1147426709617
 30
0.0
 11
69.86974594851642
 21
-127.5134309086814
 31
0.0
  0
LINE
  5
61A
330
1F
100
AcDbEntity
  8
0
100
AcDbLine
 10
69.86974594851642
 20
-127.5134309086814
 30
0.0
 11
70.26244188904118
 21
-126.9972140256828
 31
0.0
  0
LINE
  5
61B
330
1F
100
AcDbEntity
  8
0
100
AcDbLine
 10
52.85060714382571
 20
-39.4008626241813
 30
0.0
 11
53.01726198772918
 21
-118.7001762273734
 31
0.0
  0
LINE
  5
61C
330
1F
100
AcDbEntity
  8
0
100
AcDbLine
 10
127.8662666096281
 20
-38.72137522838545
 30
0.0
 11
127.4768560349313
 21
-39.23294358478776
 31
0.0
  0
LINE
  5
61D
330
1F
100
AcDbEntity
  8
0
100
AcDbLine
 10
69.54106193969776
 20
-128.7601825517743
 30
0.0
 11
69.62369272865412
 21
-128.1147426709617
 31
0.0
  0
LINE
  5
61E
330
1F
100
AcDbEntity
  8
0
100
AcDbLine
 10
70.78801112604623
 20
-130.921114681564
 30
0.0
 11
70.2729607893512
 21
-130.5243641785647
 31
0.0
  0
LINE
  5
61F
330
1F
100
AcDbEntity
  8
0
100
AcDbLine
 10
69.62750054038341
 20
-129.4057691685944
 30
0.0
 11
69.54106193969776
 21
-128.7601825517743
 31
0.0
  0
LINE
  5
620
330
1F
100
AcDbEntity
  8
0
100
AcDbLine
 10
66.20297951746352
 20
-13.96945983293921
 30
0.0
 11
52.79714344637637
 21
-13.96125096242238
 31
0.0
  0
LINE
  5
621
330
1F
100
AcDbEntity
  8
0
100
AcDbLine
 10
126.9677151897124
 20
-39.62537305859516
 30
0.0
 11
126.3735452914068
 21
-39.87190457054199
 31
0.0
  0
LINE
  5
622
330
1F
100
AcDbEntity
  8
0
100
AcDbLine
 10
71.90046327444165
 20
-13.9729486050072
 30
0.0
 11
71.89426639089055
 21
-11.96346468936157
 31
0.0
  0
LINE
  5
623
330
1F
100
AcDbEntity
  8
0
100
AcDbLine
 10
78.26856194558816
 20
-2.838133055432558
 30
0.0
 11
78.81762358127233
 21
-2.154369574197551
 31
0.0
  0
LINE
  5
624
330
1F
100
AcDbEntity
  8
0
100
AcDbLine
 10
66.22230557405749
 20
-20.89419291992233
 30
0.0
 11
71.92181790168111
 21
-20.89768417676024
 31
0.0
  0
LINE
  5
625
330
1F
100
AcDbEntity
  8
0
100
AcDbLine
 10
71.38597404349068
 20
-2.149821677001928
 30
0.0
 11
71.93948263674288
 21
-2.834259754497203
 31
0.0
  0
LINE
  5
626
330
1F
100
AcDbEntity
  8
0
100
AcDbLine
 10
128.1094135059296
 20
-38.12554619476801
 30
0.0
 11
127.8662666096281
 21
-38.72137522838545
 31
0.0
  0
LINE
  5
627
330
1F
100
AcDbEntity
  8
0
100
AcDbLine
 10
52.82991510296142
 20
-29.55497636514601
 30
0.0
 11
46.0098222908873
 21
-29.55079683123934
 31
0.0
  0
LINE
  5
628
330
1F
100
AcDbEntity
  8
0
100
AcDbLine
 10
71.1096101725071
 20
-39.83801949179144
 30
0.0
 11
70.51324105911522
 21
-39.590758439753
 31
0.0
  0
LINE
  5
629
330
1F
100
AcDbEntity
  8
0
100
AcDbLine
 10
126.3454933722054
 20
-35.09858180095409
 30
0.0
 11
126.9424336360783
 21
-35.34572879476029
 31
0.0
  0
LINE
  5
62A
330
1F
100
AcDbEntity
  8
0
100
AcDbLine
 10
70.51324105911522
 20
-39.590758439753
 30
0.0
 11
70.00060038477352
 21
-39.19770317930848
 31
0.0
  0
LINE
  5
62B
330
1F
100
AcDbEntity
  8
0
100
AcDbLine
 10
46.0098222908873
 20
-29.55079683123934
 30
0.0
 11
46.02706447657681
 21
-39.39667886088456
 31
0.0
  0
LINE
  5
62C
330
1F
100
AcDbEntity
  8
0
100
AcDbLine
 10
127.4768560349313
 20
-39.23294358478776
 30
0.0
 11
126.9677151897124
 21
-39.62537305859516
 31
0.0
  0
LINE
  5
62D
330
1F
100
AcDbEntity
  8
0
100
AcDbLine
 10
104.39803156259
 20
-23.31374654422284
 30
0.0
 11
104.224423088382
 21
-22.04103643957433
 31
0.0
  0
LINE
  5
62E
330
1F
100
AcDbEntity
  8
0
100
AcDbLine
 10
123.7365323169184
 20
-121.7470665878272
 30
0.0
 11
123.8173461320102
 21
-121.1020893641348
 31
0.0
  0
LINE
  5
62F
330
1F
100
AcDbEntity
  8
0
100
AcDbLine
 10
53.34958480530766
 20
-276.8292213331558
 30
0.0
 11
46.44285069734134
 21
-276.8249349326823
 31
0.0
  0
LINE
  5
630
330
1F
100
AcDbEntity
  8
0
100
AcDbLine
 10
78.81762358127233
 20
-2.154369574197551
 30
0.0
 11
79.19788246082267
 21
-1.375412074574416
 31
0.0
  0
LINE
  5
631
330
1F
100
AcDbEntity
  8
0
100
AcDbLine
 10
53.27187907501755
 20
-239.8545320250446
 30
0.0
 11
46.37810036009841
 21
-239.8502616900091
 31
0.0
  0
LINE
  5
632
330
1F
100
AcDbEntity
  8
0
100
AcDbLine
 10
164.3570761478561
 20
5.8175932842482
 30
0.0
 11
164.4935697468678
 21
-11.5798694345579
 31
0.0
  0
LINE
  5
633
330
1F
100
AcDbEntity
  8
0
100
AcDbLine
 10
66.54746940900675
 20
-137.4038779463446
 30
0.0
 11
66.55315021255464
 21
-139.4393707070943
 31
0.0
  0
LINE
  5
634
330
1F
100
AcDbEntity
  8
0
100
AcDbLine
 10
159.02499307027
 20
-26.99249958705534
 30
0.0
 11
164.65838717963
 21
-32.58748563523841
 31
0.0
  0
LINE
  5
635
330
1F
100
AcDbEntity
  8
0
100
AcDbLine
 10
72.30273933979606
 20
-144.4203382140423
 30
0.0
 11
76.80132725440176
 21
-144.4231113353251
 31
0.0
  0
LINE
  5
636
330
1F
100
AcDbEntity
  8
0
100
AcDbLine
 10
125.0951693219422
 20
-39.87112073438747
 30
0.0
 11
124.4981137698613
 21
-39.62385884181842
 31
0.0
  0
LINE
  5
637
330
1F
100
AcDbEntity
  8
0
100
AcDbLine
 10
78.77327453550367
 20
2.734450451887893
 30
0.0
 11
78.21913329732148
 21
3.40522944548995
 31
0.0
  0
LINE
  5
638
330
1F
100
AcDbEntity
  8
0
100
AcDbLine
 10
70.00060038477352
 20
-39.19770317930848
 30
0.0
 11
69.60662799493585
 21
-38.68565544624516
 31
0.0
  0
LINE
  5
639
330
1F
100
AcDbEntity
  8
0
100
AcDbLine
 10
104.3859363483318
 20
-20.76869807682055
 30
0.0
 11
104.8715023501386
 21
-19.58342247951987
 31
0.0
  0
LINE
  5
63A
330
1F
100
AcDbEntity
  8
0
100
AcDbLine
 10
124.0759376502694
 20
-122.9934925305541
 30
0.0
 11
123.8247276906313
 21
-122.3921904270833
 31
0.0
  0
LINE
  5
63B
330
1F
100
AcDbEntity
  8
0
100
AcDbLine
 10
123.5889901555871
 20
-38.71875277162555
 30
0.0
 11
123.3388775240494
 21
-38.1226214033513
 31
0.0
  0
LINE
  5
63C
330
1F
100
AcDbEntity
  8
0
100
AcDbLine
 10
71.0951035519408
 20
-35.06471333072061
 30
0.0
 11
71.73387411769663
 21
-34.98093404676256
 31
0.0
  0
LINE
  5
63D
330
1F
100
AcDbEntity
  8
0
100
AcDbLine
 10
127.8515556100943
 20
-36.25052133989193
 30
0.0
 11
128.1017823290859
 21
-36.84653809065315
 31
0.0
  0
LINE
  5
63E
330
1F
100
AcDbEntity
  8
0
100
AcDbLine
 10
127.4693079471233
 20
-123.9079769825947
 30
0.0
 11
126.8725729363855
 21
-124.1566470108618
 31
0.0
  0
LINE
  5
63F
330
1F
100
AcDbEntity
  8
0
100
AcDbLine
 10
66.56704159682012
 20
-144.4168024855462
 30
0.0
 11
66.57272647224738
 21
-146.4537542443934
 31
0.0
  0
LINE
  5
640
330
1F
100
AcDbEntity
  8
0
100
AcDbLine
 10
71.00064998995842
 20
-1.370395869773253
 30
0.0
 11
67.5075244580297
 21
-1.368258290641767
 31
0.0
  0
LINE
  5
641
330
1F
100
AcDbEntity
  8
0
100
AcDbLine
 10
72.96941598895194
 20
-35.31264293388219
 30
0.0
 11
73.48201429934635
 21
-35.70554138112348
 31
0.0
  0
LINE
  5
642
330
1F
100
AcDbEntity
  8
0
100
AcDbLine
 10
82.67883305222519
 20
1.967011622308253
 30
0.0
 11
82.69101056412197
 21
-1.377549655279198
 31
0.0
  0
LINE
  5
643
330
1F
100
AcDbEntity
  8
0
100
AcDbLine
 10
46.37810036009841
 20
-239.8502616900091
 30
0.0
 11
46.3957172316252
 21
-249.910102240125
 31
0.0
  0
LINE
  5
644
330
1F
100
AcDbEntity
  8
0
100
AcDbLine
 10
71.00064998995842
 20
-1.370395869773253
 30
0.0
 11
71.38597404349068
 21
-2.149821677001928
 31
0.0
  0
LINE
  5
645
330
1F
100
AcDbEntity
  8
0
100
AcDbLine
 10
66.21669336585752
 20
-18.88327860713215
 30
0.0
 11
66.22230557405749
 21
-20.89419291992233
 31
0.0
  0
LINE
  5
646
330
1F
100
AcDbEntity
  8
0
100
AcDbLine
 10
158.9506686720907
 20
-17.15915302086004
 30
0.0
 11
109.1173847846515
 21
-17.12863341227075
 31
0.0
  0
LINE
  5
647
330
1F
100
AcDbEntity
  8
0
100
AcDbLine
 10
159.02499307027
 20
-26.99249958705534
 30
0.0
 11
109.1665176760434
 21
-26.96194911450367
 31
0.0
  0
LINE
  5
648
330
1F
100
AcDbEntity
  8
0
100
AcDbLine
 10
66.55315021255464
 20
-139.4393707070943
 30
0.0
 11
53.06082984860368
 21
-139.4310555802765
 31
0.0
  0
LINE
  5
649
330
1F
100
AcDbEntity
  8
0
100
AcDbLine
 10
53.3265607140828
 20
-265.8736764016274
 30
0.0
 11
66.9060359191926
 21
-265.8820992998399
 31
0.0
  0
LINE
  5
64A
330
1F
100
AcDbEntity
  8
0
100
AcDbLine
 10
46.18333451717572
 20
-128.6322556134506
 30
0.0
 11
53.03814404475278
 21
-128.6364778062552
 31
0.0
  0
LINE
  5
64B
330
1F
100
AcDbEntity
  8
0
100
AcDbLine
 10
124.9640642808842
 20
-119.5896869784847
 30
0.0
 11
125.5606842175866
 21
-119.3411330621469
 31
0.0
  0
LINE
  5
64C
330
1F
100
AcDbEntity
  8
0
100
AcDbLine
 10
46.16593399557242
 20
-118.6959583223505
 30
0.0
 11
46.18333451717572
 21
-128.6322556134506
 31
0.0
  0
LINE
  5
64D
330
1F
100
AcDbEntity
  8
0
100
AcDbLine
 10
72.61685580881934
 20
-3.396810753233698
 30
0.0
 11
73.39150369663547
 21
-3.815372824156847
 31
0.0
  0
LINE
  5
64E
330
1F
100
AcDbEntity
  8
0
100
AcDbLine
 10
125.7348494355474
 20
-39.95572595152661
 30
0.0
 11
125.0951693219422
 21
-39.87112073438747
 31
0.0
  0
LINE
  5
64F
330
1F
100
AcDbEntity
  8
0
100
AcDbLine
 10
72.6187344530791
 20
3.958785966782065
 30
0.0
 11
71.94832459660597
 21
3.409065853063943
 31
0.0
  0
LINE
  5
650
330
1F
100
AcDbEntity
  8
0
100
AcDbLine
 10
79.18630603828423
 20
1.969148467418223
 30
0.0
 11
82.67883305222519
 21
1.967011622308253
 31
0.0
  0
LINE
  5
651
330
1F
100
AcDbEntity
  8
0
100
AcDbLine
 10
105.6814845381625
 20
-25.51914119368592
 30
0.0
 11
104.8949926488991
 21
-24.50007877671038
 31
0.0
  0
LINE
  5
652
330
1F
100
AcDbEntity
  8
0
100
AcDbLine
 10
123.2510781142276
 20
-37.48304495685218
 30
0.0
 11
123.3315596801847
 21
-36.8436136834294
 31
0.0
  0
LINE
  5
653
330
1F
100
AcDbEntity
  8
0
100
AcDbLine
 10
76.80132725440176
 20
-144.4231113353251
 30
0.0
 11
76.78483413091305
 21
-139.4456763496412
 31
0.0
  0
LINE
  5
654
330
1F
100
AcDbEntity
  8
0
100
AcDbLine
 10
106.7039254959723
 20
-26.30142432572553
 30
0.0
 11
105.6814845381625
 21
-25.51914119368592
 31
0.0
  0
LINE
  5
655
330
1F
100
AcDbEntity
  8
0
100
AcDbLine
 10
52.74840922564852
 20
9.22793551548239
 30
0.0
 11
134.2035176502143
 21
9.178117123502433
 31
0.0
  0
LINE
  5
656
330
1F
100
AcDbEntity
  8
0
100
AcDbLine
 10
164.7251166213998
 20
-41.09281470442058
 30
0.0
 11
82.18302939049497
 21
-297.693264912516
 31
0.0
  0
LINE
  5
657
330
1F
100
AcDbEntity
  8
0
100
AcDbLine
 10
46.02706447657681
 20
-39.39667886088456
 30
0.0
 11
52.85060714382571
 21
-39.4008626241813
 31
0.0
  0
LINE
  5
658
330
1F
100
AcDbEntity
  8
0
100
AcDbLine
 10
72.38798179629259
 20
-39.83880332528161
 30
0.0
 11
71.74905466842283
 21
-39.92262442132476
 31
0.0
  0
LINE
  5
659
330
1F
100
AcDbEntity
  8
0
100
AcDbLine
 10
123.5748218646949
 20
-36.24789954857223
 30
0.0
 11
123.9642752381827
 21
-35.73648800617129
 31
0.0
  0
LINE
  5
65A
330
1F
100
AcDbEntity
  8
0
100
AcDbLine
 10
66.9060359191926
 20
-265.8820992998399
 30
0.0
 11
66.91179155188375
 21
-267.9444041440316
 31
0.0
  0
LINE
  5
65B
330
1F
100
AcDbEntity
  8
0
100
AcDbLine
 10
70.50036566905318
 20
-35.31112938768918
 30
0.0
 11
71.0951035519408
 21
-35.06471333072061
 31
0.0
  0
LINE
  5
65C
330
1F
100
AcDbEntity
  8
0
100
AcDbLine
 10
136.4208934463695
 20
11.4041748244002
 30
0.0
 11
158.7348786638178
 21
11.39052903324565
 31
0.0
  0
LINE
  5
65D
330
1F
100
AcDbEntity
  8
0
100
AcDbLine
 10
124.9890185127914
 20
-123.9064496309602
 30
0.0
 11
124.4730541518636
 21
-123.509983555499
 31
0.0
  0
LINE
  5
65E
330
1F
100
AcDbEntity
  8
0
100
AcDbLine
 10
164.65838717963
 20
-32.58748563523841
 30
0.0
 11
164.7251166213998
 21
-41.09281470442058
 31
0.0
  0
LINE
  5
65F
330
1F
100
AcDbEntity
  8
0
100
AcDbLine
 10
75.98308082239325
 20
-4.074569872421114
 30
0.0
 11
76.82291268811406
 21
-3.817472900526155
 31
0.0
  0
LINE
  5
660
330
1F
100
AcDbEntity
  8
0
100
AcDbLine
 10
66.91179155188375
 20
-267.9444041440316
 30
0.0
 11
72.68367617349263
 21
-267.9479846274515
 31
0.0
  0
LINE
  5
661
330
1F
100
AcDbEntity
  8
0
100
AcDbLine
 10
74.174453835267
 20
-130.0101497294397
 30
0.0
 11
73.7818006592096
 21
-130.5265256419858
 31
0.0
  0
LINE
  5
662
330
1F
100
AcDbEntity
  8
0
100
AcDbLine
 10
128.6082105330744
 20
-121.1050391350703
 30
0.0
 11
128.6965637093747
 21
-121.7501206168695
 31
0.0
  0
LINE
  5
663
330
1F
100
AcDbEntity
  8
0
100
AcDbLine
 10
66.19737130333267
 20
-11.95997663818151
 30
0.0
 11
66.20297951746352
 21
-13.96945983293921
 31
0.0
  0
LINE
  5
664
330
1F
100
AcDbEntity
  8
0
100
AcDbLine
 10
73.8760282819864
 20
-36.21743240392779
 30
0.0
 11
74.1246023835877
 21
-36.8134471289507
 31
0.0
  0
LINE
  5
665
330
1F
100
AcDbEntity
  8
0
100
AcDbLine
 10
125.5606842175866
 20
-119.3411330621469
 30
0.0
 11
126.2019843178085
 21
-119.25662693108
 31
0.0
  0
LINE
  5
666
330
1F
100
AcDbEntity
  8
0
100
AcDbLine
 10
74.21078526447117
 20
-37.45297958943705
 30
0.0
 11
74.12868806462018
 21
-38.09245088576933
 31
0.0
  0
LINE
  5
667
330
1F
100
AcDbEntity
  8
0
100
AcDbLine
 10
123.3315596801847
 20
-36.8436136834294
 30
0.0
 11
123.5748218646949
 21
-36.24789954857223
 31
0.0
  0
LINE
  5
668
330
1F
100
AcDbEntity
  8
0
100
AcDbLine
 10
126.8442768003851
 20
-119.3419233084621
 30
0.0
 11
127.4438062994239
 21
-119.5912136560043
 31
0.0
  0
LINE
  5
669
330
1F
100
AcDbEntity
  8
0
100
AcDbLine
 10
53.11497293214482
 20
-165.1939392783126
 30
0.0
 11
53.27187907501755
 21
-239.8545320250446
 31
0.0
  0
LINE
  5
66A
330
1F
100
AcDbEntity
  8
0
100
AcDbLine
 10
69.35439594794406
 20
-36.81052273166575
 30
0.0
 11
69.59930907210551
 21
-36.21481062151857
 31
0.0
  0
LINE
  5
66B
330
1F
100
AcDbEntity
  8
0
100
AcDbLine
 10
72.67731639747579
 20
-265.8856790337615
 30
0.0
 11
72.68367617349263
 21
-267.9479846274515
 31
0.0
  0
LINE
  5
66C
330
1F
100
AcDbEntity
  8
0
100
AcDbLine
 10
72.67731639747579
 20
-265.8856790337615
 30
0.0
 11
77.20381235781464
 21
-265.8884866691201
 31
0.0
  0
LINE
  5
66D
330
1F
100
AcDbEntity
  8
0
100
AcDbLine
 10
109.1665176760434
 20
-26.96194911450367
 30
0.0
 11
107.8926209690102
 21
-26.7935547627558
 31
0.0
  0
LINE
  5
66E
330
1F
100
AcDbEntity
  8
0
100
AcDbLine
 10
52.80747028241332
 20
-18.87506558812126
 30
0.0
 11
52.82991510296142
 21
-29.55497636514601
 31
0.0
  0
LINE
  5
66F
330
1F
100
AcDbEntity
  8
0
100
AcDbLine
 10
53.0940127798987
 20
-155.2204776781265
 30
0.0
 11
53.07129037308417
 21
-144.408483129416
 31
0.0
  0
LINE
  5
670
330
1F
100
AcDbEntity
  8
0
100
AcDbLine
 10
73.38405480166169
 20
4.36705396498602
 30
0.0
 11
72.6187344530791
 21
3.958785966782065
 31
0.0
  0
LINE
  5
671
330
1F
100
AcDbEntity
  8
0
100
AcDbLine
 10
74.1246023835877
 20
-36.8134471289507
 30
0.0
 11
74.21078526447117
 21
-37.45297958943705
 31
0.0
  0
LINE
  5
672
330
1F
100
AcDbEntity
  8
0
100
AcDbLine
 10
123.3388775240494
 20
-38.1226214033513
 30
0.0
 11
123.2510781142276
 21
-37.48304495685218
 31
0.0
  0
LINE
  5
673
330
1F
100
AcDbEntity
  8
0
100
AcDbLine
 10
75.94465220717944
 20
4.617166561658288
 30
0.0
 11
75.0795176637688
 21
4.702674139468117
 31
0.0
  0
LINE
  5
674
330
1F
100
AcDbEntity
  8
0
100
AcDbLine
 10
125.7059701448462
 20
-35.01401878030498
 30
0.0
 11
126.3454933722054
 21
-35.09858180095409
 31
0.0
  0
LINE
  5
675
330
1F
100
AcDbEntity
  8
0
100
AcDbLine
 10
104.8715023501386
 20
-19.58342247951987
 30
0.0
 11
105.6479849647574
 21
-18.56593872351624
 31
0.0
  0
LINE
  5
676
330
1F
100
AcDbEntity
  8
0
100
AcDbLine
 10
74.12868806462018
 20
-38.09245088576933
 30
0.0
 11
73.88388990976932
 21
-38.68827789409026
 31
0.0
  0
LINE
  5
677
330
1F
100
AcDbEntity
  8
0
100
AcDbLine
 10
72.37316184487165
 20
-35.06549678002078
 30
0.0
 11
72.96941598895194
 21
-35.31264293388219
 31
0.0
  0
LINE
  5
678
330
1F
100
AcDbEntity
  8
0
100
AcDbLine
 10
46.24735420224048
 20
-165.1897012912287
 30
0.0
 11
53.11497293214482
 21
-165.1939392783126
 31
0.0
  0
LINE
  5
679
330
1F
100
AcDbEntity
  8
0
100
AcDbLine
 10
69.27214197935366
 20
-37.44995183172482
 30
0.0
 11
69.35439594794406
 21
-36.81052273166575
 31
0.0
  0
LINE
  5
67A
330
1F
100
AcDbEntity
  8
0
100
AcDbLine
 10
123.9843826473603
 20
-39.23080224525767
 30
0.0
 11
123.5889901555871
 21
-38.71875277162555
 31
0.0
  0
LINE
  5
67B
330
1F
100
AcDbEntity
  8
0
100
AcDbLine
 10
124.4527716759906
 20
-119.9853617373817
 30
0.0
 11
124.9640642808842
 21
-119.5896869784847
 31
0.0
  0
LINE
  5
67C
330
1F
100
AcDbEntity
  8
0
100
AcDbLine
 10
73.39150369663547
 20
-3.815372824156847
 30
0.0
 11
74.23301010360755
 21
-4.073498787371885
 31
0.0
  0
LINE
  5
67D
330
1F
100
AcDbEntity
  8
0
100
AcDbLine
 10
53.31597001542975
 20
-260.8343081231934
 30
0.0
 11
53.29302076979826
 21
-249.9143769431589
 31
0.0
  0
LINE
  5
67E
330
1F
100
AcDbEntity
  8
0
100
AcDbLine
 10
53.3265607140828
 20
-265.8736764016274
 30
0.0
 11
53.34958480530766
 21
-276.8292213331558
 31
0.0
  0
LINE
  5
67F
330
1F
100
AcDbEntity
  8
0
100
AcDbLine
 10
66.57272647224738
 20
-146.4537542443934
 30
0.0
 11
72.30902093145728
 21
-146.4572907086092
 31
0.0
  0
LINE
  5
680
330
1F
100
AcDbEntity
  8
0
100
AcDbLine
 10
46.22988860575882
 20
-155.2162440029
 30
0.0
 11
46.24735420224048
 21
-165.1897012912287
 31
0.0
  0
LINE
  5
681
330
1F
100
AcDbEntity
  8
0
100
AcDbLine
 10
72.28738983835686
 20
-139.4429046381312
 30
0.0
 11
72.28111274598326
 21
-137.4074111424521
 31
0.0
  0
LINE
  5
682
330
1F
100
AcDbEntity
  8
0
100
AcDbLine
 10
158.7348786638178
 20
11.39052903324565
 30
0.0
 11
164.3570761478561
 21
5.8175932842482
 31
0.0
  0
LINE
  5
683
330
1F
100
AcDbEntity
  8
0
100
AcDbLine
 10
128.1897381856452
 20
-37.48607272485597
 30
0.0
 11
128.1094135059296
 21
-38.12554619476801
 31
0.0
  0
LINE
  5
684
330
1F
100
AcDbEntity
  8
0
100
AcDbLine
 10
128.6965637093747
 20
-121.7501206168695
 30
0.0
 11
128.6159081423472
 21
-122.3951405872195
 31
0.0
  0
LINE
  5
685
330
1F
100
AcDbEntity
  8
0
100
AcDbLine
 10
74.42039100339204
 20
-129.4087214450541
 30
0.0
 11
74.174453835267
 21
-130.0101497294397
 31
0.0
  0
LINE
  5
686
330
1F
100
AcDbEntity
  8
0
100
AcDbLine
 10
75.10832825693169
 20
-4.16104467198827
 30
0.0
 11
75.98308082239325
 21
-4.074569872421114
 31
0.0
  0
LINE
  5
687
330
1F
100
AcDbEntity
  8
0
100
AcDbLine
 10
73.25564163409109
 20
-126.6027832364152
 30
0.0
 11
73.77064920632309
 21
-126.9993747098647
 31
0.0
  0
LINE
  5
688
330
1F
100
AcDbEntity
  8
0
100
AcDbLine
 10
72.014301900574
 20
-126.2679565292389
 30
0.0
 11
72.65658822969434
 21
-126.3533140850391
 31
0.0
  0
LINE
  5
689
330
1F
100
AcDbEntity
  8
0
100
AcDbLine
 10
67.4979596841435
 20
1.976299789555739
 30
0.0
 11
70.99048412759765
 21
1.974162946018379
 31
0.0
  0
LINE
  5
68A
330
1F
100
AcDbEntity
  8
0
100
AcDbLine
 10
72.6617758817264
 20
-260.846304615708
 30
0.0
 11
72.65542068924466
 21
-258.7854853398632
 31
0.0
  0
LINE
  5
68B
330
1F
100
AcDbEntity
  8
0
100
AcDbLine
 10
134.2035176502143
 20
9.178117123502433
 30
0.0
 11
136.4208934463695
 21
11.4041748244002
 31
0.0
  0
LINE
  5
68C
330
1F
100
AcDbEntity
  8
0
100
AcDbLine
 10
53.06082984860368
 20
-139.4310555802765
 30
0.0
 11
53.03814404475278
 21
-128.6364778062552
 31
0.0
  0
LINE
  5
68D
330
1F
100
AcDbEntity
  8
0
100
AcDbLine
 10
79.18630603828423
 20
1.969148467418223
 30
0.0
 11
78.77327453550367
 21
2.734450451887893
 31
0.0
  0
LINE
  5
68E
330
1F
100
AcDbEntity
  8
0
100
AcDbLine
 10
52.74840922564852
 20
9.22793551548239
 30
0.0
 11
52.79714344637637
 21
-13.96125096242238
 31
0.0
  0
LINE
  5
68F
330
1F
100
AcDbEntity
  8
0
100
AcDbLine
 10
71.37253759377734
 20
-126.3525232719213
 30
0.0
 11
72.014301900574
 21
-126.2679565292389
 31
0.0
  0
LINE
  5
690
330
1F
100
AcDbEntity
  8
0
100
AcDbLine
 10
71.73387411769663
 20
-34.98093404676256
 30
0.0
 11
72.37316184487165
 21
-35.06549678002078
 31
0.0
  0
LINE
  5
691
330
1F
100
AcDbEntity
  8
0
100
AcDbLine
 10
124.4730541518636
 20
-123.509983555499
 30
0.0
 11
124.0759376502694
 21
-122.9934925305541
 31
0.0
  0
LINE
  5
692
330
1F
100
AcDbEntity
  8
0
100
AcDbLine
 10
72.65658822969434
 20
-126.3533140850391
 30
0.0
 11
73.25564163409109
 21
-126.6027832364152
 31
0.0
  0
LINE
  5
693
330
1F
100
AcDbEntity
  8
0
100
AcDbLine
 10
107.8926209690102
 20
-26.7935547627558
 30
0.0
 11
106.7039254959723
 21
-26.30142432572553
 31
0.0
  0
LINE
  5
694
330
1F
100
AcDbEntity
  8
0
100
AcDbLine
 10
72.28111274598326
 20
-137.4074111424521
 30
0.0
 11
66.54746940900675
 21
-137.4038779463446
 31
0.0
  0
LINE
  5
695
330
1F
100
AcDbEntity
  8
0
100
AcDbLine
 10
72.67154749438886
 20
-131.1714915577862
 30
0.0
 11
72.02962515434409
 21
-131.256100703511
 31
0.0
  0
LINE
  5
696
330
1F
100
AcDbEntity
  8
0
100
AcDbLine
 10
73.77064920632309
 20
-126.9993747098647
 30
0.0
 11
74.16651830513909
 21
-127.5160773352839
 31
0.0
  0
LINE
  5
697
330
1F
100
AcDbEntity
  8
0
100
AcDbLine
 10
73.7818006592096
 20
-130.5265256419858
 30
0.0
 11
73.26918586439551
 21
-130.922643128942
 31
0.0
  0
LINE
  5
698
330
1F
100
AcDbEntity
  8
0
100
AcDbLine
 10
73.26918586439551
 20
-130.922643128942
 30
0.0
 11
72.67154749438886
 21
-131.1714915577862
 31
0.0
  0
LINE
  5
699
330
1F
100
AcDbEntity
  8
0
100
AcDbLine
 10
70.77501470234675
 20
-126.6012554638772
 30
0.0
 11
71.37253759377734
 21
-126.3525232719213
 31
0.0
  0
LINE
  5
69A
330
1F
100
AcDbEntity
  8
0
100
AcDbLine
 10
107.8457835536851
 20
-17.29530196975971
 30
0.0
 11
109.1173847846515
 21
-17.12863341227075
 31
0.0
  0
LINE
  5
69B
330
1F
100
AcDbEntity
  8
0
100
AcDbLine
 10
104.8949926488991
 20
-24.50007877671038
 30
0.0
 11
104.39803156259
 21
-23.31374654422284
 31
0.0
  0
LINE
  5
69C
330
1F
100
AcDbEntity
  8
0
100
AcDbLine
 10
66.89197166594386
 20
-260.8427267129026
 30
0.0
 11
53.31597001542975
 21
-260.8343081231934
 31
0.0
  0
LINE
  5
69D
330
1F
100
AcDbEntity
  8
0
100
AcDbLine
 10
78.21913329732148
 20
3.40522944548995
 30
0.0
 11
77.54514691444803
 21
3.955772130463661
 31
0.0
  0
LINE
  5
69E
330
1F
100
AcDbEntity
  8
0
100
AcDbLine
 10
77.18711398837232
 20
-260.8491108148963
 30
0.0
 11
72.6617758817264
 21
-260.846304615708
 31
0.0
  0
LINE
  5
69F
330
1F
100
AcDbEntity
  8
0
100
AcDbLine
 10
67.5075244580297
 20
-1.368258290641767
 30
0.0
 11
67.4979596841435
 21
1.976299789555739
 31
0.0
  0
LINE
  5
6A0
330
1F
100
AcDbEntity
  8
0
100
AcDbLine
 10
106.6624513104605
 20
-17.78552457856857
 30
0.0
 11
107.8457835536851
 21
-17.29530196975971
 31
0.0
  0
LINE
  5
6A1
330
1F
100
AcDbEntity
  8
0
100
AcDbLine
 10
71.91561660481906
 20
-18.8867691423119
 30
0.0
 11
71.92181790168111
 21
-20.89768417676024
 31
0.0
  0
LINE
  5
6A2
330
1F
100
AcDbEntity
  8
0
100
AcDbLine
 10
66.88622018137659
 20
-258.7819081857456
 30
0.0
 11
66.89197166594386
 21
-260.8427267129026
 31
0.0
  0
LINE
  5
6A3
330
1F
100
AcDbEntity
  8
0
100
AcDbLine
 10
53.01726198772918
 20
-118.7001762273734
 30
0.0
 11
46.16593399557242
 21
-118.6959583223505
 31
0.0
  0
LINE
  5
6A4
330
1F
100
AcDbEntity
  8
0
100
AcDbLine
 10
71.89426639089055
 20
-11.96346468936157
 30
0.0
 11
66.19737130333267
 21
-11.95997663818151
 31
0.0
  0
LINE
  5
6A5
330
1F
100
AcDbEntity
  8
0
100
AcDbLine
 10
53.3708060577107
 20
-286.9269221256064
 30
0.0
 11
53.39339493386935
 21
-297.6753788312147
 31
0.0
  0
LINE
  5
6A6
330
1F
100
AcDbEntity
  8
0
100
AcDbLine
 10
74.50286354930958
 20
-128.7632387715791
 30
0.0
 11
74.42039100339204
 21
-129.4087214450541
 31
0.0
  0
LINE
  5
6A7
330
1F
100
AcDbEntity
  8
0
100
AcDbLine
 10
74.41626691537641
 20
-128.1176945578012
 30
0.0
 11
74.50286354930958
 21
-128.7632387715791
 31
0.0
  0
LINE
  5
6A8
330
1F
100
AcDbEntity
  8
0
100
AcDbLine
 10
71.93948263674288
 20
-2.834259754497203
 30
0.0
 11
72.61685580881934
 21
-3.396810753233698
 31
0.0
  0
LINE
  5
6A9
330
1F
100
AcDbEntity
  8
0
100
AcDbLine
 10
126.2311150335746
 20
-124.2411954993871
 30
0.0
 11
125.5886643029321
 21
-124.1558563753448
 31
0.0
  0
LINE
  5
6AA
330
1F
100
AcDbEntity
  8
0
100
AcDbLine
 10
70.26244188904118
 20
-126.9972140256828
 30
0.0
 11
70.77501470234675
 21
-126.6012554638772
 31
0.0
  0
LINE
  5
6AB
330
1F
100
AcDbEntity
  8
0
100
AcDbLine
 10
71.74905466842283
 20
-39.92262442132476
 30
0.0
 11
71.1096101725071
 21
-39.83801949179144
 31
0.0
  0
LINE
  5
6AC
330
1F
100
AcDbEntity
  8
0
100
AcDbLine
 10
74.23301010360755
 20
-4.073498787371885
 30
0.0
 11
75.10832825693169
 21
-4.16104467198827
 31
0.0
  0
LINE
  5
6AD
330
1F
100
AcDbEntity
  8
0
100
AcDbLine
 10
46.46053386232799
 20
-286.922631332456
 30
0.0
 11
53.3708060577107
 21
-286.9269221256064
 31
0.0
  0
LINE
  5
6AE
330
1F
100
AcDbEntity
  8
0
100
AcDbLine
 10
74.16651830513909
 20
-127.5160773352839
 30
0.0
 11
74.41626691537641
 21
-128.1176945578012
 31
0.0
  0
LINE
  5
6AF
330
1F
100
AcDbEntity
  8
0
100
AcDbLine
 10
75.0795176637688
 20
4.702674139468117
 30
0.0
 11
74.21493559495572
 21
4.618224716168985
 31
0.0
  0
LINE
  5
6B0
330
1F
100
AcDbEntity
  8
0
100
AcDbLine
 10
77.20381235781464
 20
-265.8884866691201
 30
0.0
 11
77.18711398837232
 21
-260.8491108148963
 31
0.0
  0
LINE
  5
6B1
330
1F
100
AcDbEntity
  8
0
100
AcDbLine
 10
104.224423088382
 20
-22.04103643957433
 30
0.0
 11
104.3859363483318
 21
-20.76869807682055
 31
0.0
  0
LINE
  5
6B2
330
1F
100
AcDbEntity
  8
0
100
AcDbLine
 10
76.38536175265128
 20
-18.88950681783903
 30
0.0
 11
76.3690794160737
 21
-13.97568489770103
 31
0.0
  0
LINE
  5
6B3
330
1F
100
AcDbEntity
  8
0
100
AcDbLine
 10
127.4438062994239
 20
-119.5912136560043
 30
0.0
 11
127.9597274863215
 21
-119.9875208728792
 31
0.0
  0
LINE
  5
6B4
330
1F
100
AcDbEntity
  8
0
100
AcDbLine
 10
76.78483413091305
 20
-139.4456763496412
 30
0.0
 11
72.28738983835686
 21
-139.4429046381312
 31
0.0
  0
LINE
  5
6B5
330
1F
100
AcDbEntity
  8
0
100
AcDbLine
 10
128.6159081423472
 20
-122.3951405872195
 30
0.0
 11
128.3717245650391
 21
-122.9961377343795
 31
0.0
  0
LINE
  5
6B6
330
1F
100
AcDbEntity
  8
0
100
AcDbLine
 10
53.07129037308417
 20
-144.408483129416
 30
0.0
 11
66.56704159682012
 21
-144.4168024855462
 31
0.0
  0
LINE
  5
6B7
330
1F
100
AcDbEntity
  8
0
100
AcDbLine
 10
128.3717245650391
 20
-122.9961377343795
 30
0.0
 11
127.9806420635016
 21
-123.5121434693986
 31
0.0
  0
LINE
  5
6B8
330
1F
100
AcDbEntity
  8
0
100
AcDbLine
 10
123.8247276906313
 20
-122.3921904270833
 30
0.0
 11
123.7365323169184
 21
-121.7470665878272
 31
0.0
  0
LINE
  5
6B9
330
1F
100
AcDbEntity
  8
0
100
AcDbLine
 10
76.77716925089344
 20
4.364978199603235
 30
0.0
 11
75.94465220717944
 21
4.617166561658288
 31
0.0
  0
LINE
  5
6BA
330
1F
100
AcDbEntity
  8
0
100
AcDbLine
 10
72.98283408397161
 20
-39.59227265138202
 30
0.0
 11
72.38798179629259
 21
-39.83880332528161
 31
0.0
  0
LINE
  5
6BB
330
1F
100
AcDbEntity
  8
0
100
AcDbLine
 10
46.3957172316252
 20
-249.910102240125
 30
0.0
 11
53.29302076979826
 21
-249.9143769431589
 31
0.0
  0
LINE
  5
6BC
330
1F
100
AcDbEntity
  8
0
100
AcDbLine
 10
69.35816829812661
 20
-38.0895261042945
 30
0.0
 11
69.27214197935366
 21
-37.44995183172482
 31
0.0
  0
LINE
  5
6BD
330
1F
100
AcDbEntity
  8
0
100
AcDbLine
 10
69.59930907210551
 20
-36.21481062151857
 30
0.0
 11
69.99017944531724
 21
-35.70340081725131
 31
0.0
  0
LINE
  5
6BE
330
1F
100
AcDbEntity
  8
0
100
AcDbLine
 10
69.99017944531724
 20
-35.70340081725131
 30
0.0
 11
70.50036566905318
 21
-35.31112938768918
 31
0.0
  0
LINE
  5
6BF
330
1F
100
AcDbEntity
  8
0
100
AcDbLine
 10
46.44285069734134
 20
-276.8249349326823
 30
0.0
 11
46.46053386232799
 21
-286.922631332456
 31
0.0
  0
LINE
  5
6C0
330
1F
100
AcDbEntity
  8
0
100
AcDbLine
 10
126.3735452914068
 20
-39.87190457054199
 30
0.0
 11
125.7348494355474
 21
-39.95572595152661
 31
0.0
  0
LINE
  5
6C1
330
1F
100
AcDbEntity
  8
0
100
AcDbLine
 10
71.91561660481906
 20
-18.8867691423119
 30
0.0
 11
76.38536175265128
 21
-18.88950681783903
 31
0.0
  0
LINE
  5
6C2
330
1F
100
AcDbEntity
  8
0
100
AcDbLine
 10
72.02962515434409
 20
-131.256100703511
 30
0.0
 11
71.38718058218244
 21
-131.1707003550487
 31
0.0
  0
LINE
  5
6C3
330
1F
100
AcDbEntity
  8
0
100
AcDbLine
 10
124.4733749248729
 20
-35.34421524342376
 30
0.0
 11
125.0674307357246
 21
-35.0977983489913
 31
0.0
  0
LINE
  5
6C4
330
1F
100
AcDbEntity
  8
0
100
AcDbLine
 10
125.5886643029321
 20
-124.1558563753448
 30
0.0
 11
124.9890185127914
 21
-123.9064496309602
 31
0.0
  0
LINE
  5
6C5
330
1F
100
AcDbEntity
  8
0
100
AcDbLine
 10
125.0674307357246
 20
-35.0977983489913
 30
0.0
 11
125.7059701448462
 21
-35.01401878030498
 31
0.0
  0
LINE
  5
6C6
330
1F
100
AcDbEntity
  8
0
100
AcDbLine
 10
71.38718058218244
 20
-131.1707003550487
 30
0.0
 11
70.78801112604623
 21
-130.921114681564
 31
0.0
  0
LINE
  5
6C7
330
1F
100
AcDbEntity
  8
0
100
AcDbLine
 10
123.8173461320102
 20
-121.1020893641348
 30
0.0
 11
124.0616460004212
 21
-120.5012086138157
 31
0.0
  0
LINE
  5
6C8
330
1F
100
AcDbEntity
  8
0
100
AcDbLine
 10
74.21493559495572
 20
4.618224716168985
 30
0.0
 11
73.38405480166169
 21
4.36705396498602
 31
0.0
  0
LINE
  5
6C9
330
1F
100
AcDbEntity
  8
0
100
AcDbLine
 10
124.0616460004212
 20
-120.5012086138157
 30
0.0
 11
124.4527716759906
 21
-119.9853617373817
 31
0.0
  0
LINE
  5
6CA
330
1F
100
AcDbEntity
  8
0
100
AcDbLine
 10
53.39339493386935
 20
-297.6753788312147
 30
0.0
 11
82.18302939049497
 21
-297.693264912516
 31
0.0
  0
LINE
  5
6CB
330
1F
100
AcDbEntity
  8
0
100
AcDbLine
 10
72.30273933979606
 20
-144.4203382140423
 30
0.0
 11
72.30902093145728
 21
-146.4572907086092
 31
0.0
  0
LINE
  5
6CC
330
1F
100
AcDbEntity
  8
0
100
AcDbLine
 10
77.59484287237537
 20
-3.399857294225975
 30
0.0
 11
78.26856194558816
 21
-2.838133055432558
 31
0.0
  0
LINE
  5
6CD
330
1F
100
AcDbEntity
  8
0
100
AcDbLine
 10
71.94832459660597
 20
3.409065853063943
 30
0.0
 11
71.39854199409906
 21
2.738962382850947
 31
0.0
  0
LINE
  5
6CE
330
1F
100
AcDbEntity
  8
0
100
AcDbLine
 10
70.2729607893512
 20
-130.5243641785647
 30
0.0
 11
69.87713367204665
 21
-130.0075026279961
 31
0.0
  0
LINE
  5
6CF
330
1F
100
AcDbEntity
  8
0
100
AcDbLine
 10
76.3690794160737
 20
-13.97568489770103
 30
0.0
 11
71.90046327444165
 21
-13.9729486050072
 31
0.0
  0
LINE
  5
6D0
330
1F
100
AcDbEntity
  8
0
100
AcDbLine
 10
73.49306190050663
 20
-39.19984451156029
 30
0.0
 11
72.98283408397161
 21
-39.59227265138202
 31
0.0
  0
LINE
  5
6D1
330
1F
100
AcDbEntity
  8
0
100
AcDbLine
 10
-43.80548346386049
 20
-251.7463885248677
 30
0.0
 11
-50.61210541822827
 21
-258.6083188342199
 31
0.0
  0
LINE
  5
6D2
330
1F
100
AcDbEntity
  8
0
100
AcDbLine
 10
-183.3244106959018
 20
-251.6599113520427
 30
0.0
 11
-169.3245574432918
 21
-251.6685887964101
 31
0.0
  0
LINE
  5
6D3
330
1F
100
AcDbEntity
  8
0
100
AcDbLine
 10
-188.9200446563952
 20
-245.9383124951117
 30
0.0
 11
-183.3244106959018
 21
-251.6599113520427
 31
0.0
  0
LINE
  5
6D4
330
1F
100
AcDbEntity
  8
0
100
AcDbLine
 10
-29.82693380548049
 20
-251.7550527647572
 30
0.0
 11
-43.80548346386049
 21
-251.7463885248677
 31
0.0
  0
LINE
  5
6D5
330
1F
100
AcDbEntity
  8
0
100
AcDbLine
 10
-29.82693380548049
 20
-251.7550527647572
 30
0.0
 11
-24.16240584453783
 21
-246.0404035642024
 31
0.0
  0
ENDSEC
  0
SECTION
  2
OBJECTS
  0
DICTIONARY
  5
C
330
0
100
AcDbDictionary
281
     1
  3
ACAD_GROUP
350
D
  3
ACAD_LAYOUT
350
1A
  3
ACAD_MATERIAL
350
3B
  3
ACAD_MLEADERSTYLE
350
6D7
  3
ACAD_MLINESTYLE
350
17
  3
ACAD_PLOTSETTINGS
350
19
  3
ACAD_PLOTSTYLENAME
350
E
  3
ACAD_TABLESTYLE
350
6D6
  3
ACAD_VISUALSTYLE
350
2A
  0
DICTIONARY
  5
D
102
{ACAD_REACTORS
330
C
102
}
330
C
100
AcDbDictionary
281
     1
  0
DICTIONARY
  5
1A
102
{ACAD_REACTORS
330
C
102
}
330
C
100
AcDbDictionary
281
     1
  3
Layout1
350
1E
  3
Layout2
350
26
  3
Model
350
22
  0
DICTIONARY
  5
3B
102
{ACAD_REACTORS
330
C
102
}
330
C
100
AcDbDictionary
281
     1
  3
ByBlock
350
3D
  3
ByLayer
350
3C
  3
Global
350
3E
  0
DICTIONARY
  5
6D7
102
{ACAD_REACTORS
330
C
102
}
330
C
100
AcDbDictionary
281
     1
  0
DICTIONARY
  5
17
102
{ACAD_REACTORS
330
C
102
}
330
C
100
AcDbDictionary
281
     1
  3
Standard
350
18
  0
DICTIONARY
  5
19
102
{ACAD_REACTORS
330
C
102
}
330
C
100
AcDbDictionary
281
     1
  0
ACDBDICTIONARYWDFLT
  5
E
102
{ACAD_REACTORS
330
C
102
}
330
C
100
AcDbDictionary
281
     1
  3
Normal
350
F
100
AcDbDictionaryWithDefault
340
F
  0
DICTIONARY
  5
6D6
102
{ACAD_REACTORS
330
C
102
}
330
C
100
AcDbDictionary
281
     1
  0
DICTIONARY
  5
2A
102
{ACAD_REACTORS
330
C
102
}
330
C
100
AcDbDictionary
281
     1
  3
2dWireframe
350
2F
  3
3D Hidden
350
31
  3
3dWireframe
350
30
  3
Basic
350
32
  3
Brighten
350
36
  3
ColorChange
350
3A
  3
Conceptual
350
34
  3
Dim
350
35
  3
Facepattern
350
39
  3
Flat
350
2B
  3
FlatWithEdges
350
2C
  3
Gouraud
350
2D
  3
GouraudWithEdges
350
2E
  3
Linepattern
350
38
  3
Realistic
350
33
  3
Thicken
350
37
  0
LAYOUT
  5
1E
102
{ACAD_REACTORS
330
1A
102
}
330
1A
100
AcDbPlotSettings
  1

  2
none_device
  4

  6

 40
0.0
 41
0.0
 42
0.0
 43
0.0
 44
0.0
 45
0.0
 46
0.0
 47
0.0
 48
0.0
 49
0.0
140
0.0
141
0.0
142
1.0
143
1.0
 70
   688
 72
     0
 73
     0
 74
     5
  7

 75
    16
 76
     0
 77
     2
 78
   300
147
1.0
148
0.0
149
0.0
100
AcDbLayout
  1
Layout1
 70
     1
 71
     1
 10
0.0
 20
0.0
 11
12.0
 21
9.0
 12
0.0
 22
0.0
 32
0.0
 14
1.000000000000000E+20
 24
1.000000000000000E+20
 34
1.000000000000000E+20
 15
-1.000000000000000E+20
 25
-1.000000000000000E+20
 35
-1.000000000000000E+20
146
0.0
 13
0.0
 23
0.0
 33
0.0
 16
1.0
 26
0.0
 36
0.0
 17
0.0
 27
1.0
 37
0.0
 76
     0
330
1B
  0
LAYOUT
  5
26
102
{ACAD_REACTORS
330
1A
102
}
330
1A
100
AcDbPlotSettings
  1

  2
none_device
  4

  6

 40
0.0
 41
0.0
 42
0.0
 43
0.0
 44
0.0
 45
0.0
 46
0.0
 47
0.0
 48
0.0
 49
0.0
140
0.0
141
0.0
142
1.0
143
1.0
 70
   688
 72
     0
 73
     0
 74
     5
  7

 75
    16
 76
     0
 77
     2
 78
   300
147
1.0
148
0.0
149
0.0
100
AcDbLayout
  1
Layout2
 70
     1
 71
     2
 10
0.0
 20
0.0
 11
0.0
 21
0.0
 12
0.0
 22
0.0
 32
0.0
 14
0.0
 24
0.0
 34
0.0
 15
0.0
 25
0.0
 35
0.0
146
0.0
 13
0.0
 23
0.0
 33
0.0
 16
1.0
 26
0.0
 36
0.0
 17
0.0
 27
1.0
 37
0.0
 76
     0
330
23
  0
LAYOUT
  5
22
102
{ACAD_REACTORS
330
1A
102
}
330
1A
100
AcDbPlotSettings
  1

  2
none_device
  4

  6

 40
0.0
 41
0.0
 42
0.0
 43
0.0
 44
0.0
 45
0.0
 46
0.0
 47
0.0
 48
0.0
 49
0.0
140
0.0
141
0.0
142
1.0
143
1.0
 70
  1712
 72
     0
 73
     0
 74
     0
  7

 75
     0
 76
     0
 77
     2
 78
   300
147
1.0
148
0.0
149
0.0
100
AcDbLayout
  1
Model
 70
     1
 71
     0
 10
0.0
 20
0.0
 11
12.0
 21
9.0
 12
0.0
 22
0.0
 32
0.0
 14
1.000000000000000E+20
 24
1.000000000000000E+20
 34
1.000000000000000E+20
 15
-1.000000000000000E+20
 25
-1.000000000000000E+20
 35
-1.000000000000000E+20
146
0.0
 13
0.0
 23
0.0
 33
0.0
 16
1.0
 26
0.0
 36
0.0
 17
0.0
 27
1.0
 37
0.0
 76
     0
330
1F
331
29
  0
MATERIAL
  5
3D
102
{ACAD_REACTORS
330
3B
102
}
330
3B
100
AcDbMaterial
  1
ByBlock
 72
     1
 94
      127
  0
MATERIAL
  5
3C
102
{ACAD_REACTORS
330
3B
102
}
330
3B
100
AcDbMaterial
  1
ByLayer
 72
     1
 94
      127
  0
MATERIAL
  5
3E
102
{ACAD_REACTORS
330
3B
102
}
330
3B
100
AcDbMaterial
  1
Global
 72
     1
 94
      127
  0
MLINESTYLE
  5
18
102
{ACAD_REACTORS
330
17
102
}
330
17
100
AcDbMlineStyle
  2
Standard
 70
     0
  3

 62
   256
 51
90.0
 52
90.0
 71
     2
 49
0.5
 62
   256
  6
BYLAYER
 49
-0.5
 62
   256
  6
BYLAYER
  0
ACDBPLACEHOLDER
  5
F
102
{ACAD_REACTORS
330
E
102
}
330
E
  0
VISUALSTYLE
  5
2F
102
{ACAD_REACTORS
330
2A
102
}
330
2A
100
AcDbVisualStyle
  2
2dWireframe
 70
     4
177
     2
291
     0
 71
     0
176
     1
 72
     2
176
     1
 73
     0
176
     1
 90
        0
176
     1
 40
-0.6
176
     1
 41
-30.0
176
     1
 62
     5
 63
     7
421
 16777215
176
     1
 74
     1
176
     1
 91
        4
176
     1
 64
     7
176
     1
 65
   257
176
     1
 75
     1
176
     1
175
     1
176
     1
 42
1.0
176
     1
 92
        0
176
     1
 66
   257
176
     1
 43
1.0
176
     1
 76
     1
176
     1
 77
     6
176
     1
 78
     2
176
     1
 67
     7
176
     1
 79
     5
176
     1
170
     0
176
     1
171
     0
176
     1
290
     0
176
     1
 93
        1
176
     1
 44
0.0
176
     1
173
     0
176
     1
  0
VISUALSTYLE
  5
31
102
{ACAD_REACTORS
330
2A
102
}
330
2A
100
AcDbVisualStyle
  2
3D Hidden
 70
     6
177
     2
291
     0
 71
     1
176
     1
 72
     2
176
     1
 73
     2
176
     1
 90
        0
176
     1
 40
-0.6
176
     1
 41
-30.0
176
     1
 62
     5
 63
     7
421
 16777215
176
     1
 74
     2
176
     1
 91
        2
176
     1
 64
     7
176
     1
 65
   257
176
     1
 75
     2
176
     1
175
     1
176
     1
 42
40.0
176
     1
 92
        0
176
     1
 66
   257
176
     1
 43
1.0
176
     1
 76
     1
176
     1
 77
     6
176
     1
 78
     2
176
     1
 67
     7
176
     1
 79
     3
176
     1
170
     0
176
     1
171
     0
176
     1
290
     0
176
     1
 93
        1
176
     1
 44
0.0
176
     1
173
     0
176
     1
  0
VISUALSTYLE
  5
30
102
{ACAD_REACTORS
330
2A
102
}
330
2A
100
AcDbVisualStyle
  2
3dWireframe
 70
     5
177
     2
291
     0
 71
     0
176
     1
 72
     2
176
     1
 73
     0
176
     1
 90
        0
176
     1
 40
-0.6
176
     1
 41
-30.0
176
     1
 62
     5
 63
     7
421
 16777215
176
     1
 74
     1
176
     1
 91
        4
176
     1
 64
     7
176
     1
 65
   257
176
     1
 75
     1
176
     1
175
     1
176
     1
 42
1.0
176
     1
 92
        0
176
     1
 66
   257
176
     1
 43
1.0
176
     1
 76
     1
176
     1
 77
     6
176
     1
 78
     2
176
     1
 67
     7
176
     1
 79
     5
176
     1
170
     0
176
     1
171
     0
176
     1
290
     0
176
     1
 93
        1
176
     1
 44
0.0
176
     1
173
     0
176
     1
  0
VISUALSTYLE
  5
32
102
{ACAD_REACTORS
330
2A
102
}
330
2A
100
AcDbVisualStyle
  2
Basic
 70
     7
177
     2
291
     1
 71
     1
176
     1
 72
     0
176
     1
 73
     1
176
     1
 90
        0
176
     1
 40
-0.6
176
     1
 41
-30.0
176
     1
 62
     5
 63
     7
421
 16777215
176
     1
 74
     0
176
     1
 91
        4
176
     1
 64
     7
176
     1
 65
   257
176
     1
 75
     1
176
     1
175
     1
176
     1
 42
1.0
176
     1
 92
        8
176
     1
 66
     7
176
     1
 43
1.0
176
     1
 76
     1
176
     1
 77
     6
176
     1
 78
     2
176
     1
 67
     7
176
     1
 79
     5
176
     1
170
     0
176
     1
171
     0
176
     1
290
     0
176
     1
 93
        1
176
     1
 44
0.0
176
     1
173
     0
176
     1
  0
VISUALSTYLE
  5
36
102
{ACAD_REACTORS
330
2A
102
}
330
2A
100
AcDbVisualStyle
  2
Brighten
 70
    12
177
     2
291
     1
 71
     2
176
     1
 72
     2
176
     1
 73
     0
176
     1
 90
        0
176
     1
 40
-0.6
176
     1
 41
-30.0
176
     1
 62
     5
 63
     7
421
 16777215
176
     1
 74
     1
176
     1
 91
        4
176
     1
 64
     7
176
     1
 65
   257
176
     1
 75
     1
176
     1
175
     1
176
     1
 42
1.0
176
     1
 92
        8
176
     1
 66
     7
176
     1
 43
1.0
176
     1
 76
     1
176
     1
 77
     6
176
     1
 78
     2
176
     1
 67
     7
176
     1
 79
     5
176
     1
170
     0
176
     1
171
     0
176
     1
290
     0
176
     1
 93
        1
176
     1
 44
50.0
176
     1
173
     0
176
     1
  0
VISUALSTYLE
  5
3A
102
{ACAD_REACTORS
330
2A
102
}
330
2A
100
AcDbVisualStyle
  2
ColorChange
 70
    16
177
     2
291
     1
 71
     2
176
     1
 72
     2
176
     1
 73
     3
176
     1
 90
        0
176
     1
 40
-0.6
176
     1
 41
-30.0
176
     1
 62
     5
 63
     8
421
  8421504
176
     1
 74
     1
176
     1
 91
        4
176
     1
 64
     7
176
     1
 65
   257
176
     1
 75
     1
176
     1
175
     1
176
     1
 42
1.0
176
     1
 92
        8
176
     1
 66
     8
424
  8421504
176
     1
 43
1.0
176
     1
 76
     1
176
     1
 77
     6
176
     1
 78
     2
176
     1
 67
     7
176
     1
 79
     5
176
     1
170
     0
176
     1
171
     0
176
     1
290
     0
176
     1
 93
        1
176
     1
 44
0.0
176
     1
173
     0
176
     1
  0
VISUALSTYLE
  5
34
102
{ACAD_REACTORS
330
2A
102
}
330
2A
100
AcDbVisualStyle
  2
Conceptual
 70
     9
177
     2
291
     0
 71
     3
176
     1
 72
     2
176
     1
 73
     0
176
     1
 90
        0
176
     1
 40
-0.6
176
     1
 41
-30.0
176
     1
 62
     5
 63
     7
421
 16777215
176
     1
 74
     2
176
     1
 91
        2
176
     1
 64
     7
176
     1
 65
   257
176
     1
 75
     1
176
     1
175
     1
176
     1
 42
40.0
176
     1
 92
        8
176
     1
 66
     7
176
     1
 43
1.0
176
     1
 76
     1
176
     1
 77
     6
176
     1
 78
     2
176
     1
 67
     7
176
     1
 79
     3
176
     1
170
     0
176
     1
171
     0
176
     1
290
     0
176
     1
 93
        1
176
     1
 44
0.0
176
     1
173
     0
176
     1
  0
VISUALSTYLE
  5
35
102
{ACAD_REACTORS
330
2A
102
}
330
2A
100
AcDbVisualStyle
  2
Dim
 70
    11
177
     2
291
     1
 71
     2
176
     1
 72
     2
176
     1
 73
     0
176
     1
 90
        0
176
     1
 40
-0.6
176
     1
 41
-30.0
176
     1
 62
     5
 63
     7
421
 16777215
176
     1
 74
     1
176
     1
 91
        4
176
     1
 64
     7
176
     1
 65
   257
176
     1
 75
     1
176
     1
175
     1
176
     1
 42
1.0
176
     1
 92
        8
176
     1
 66
     7
176
     1
 43
1.0
176
     1
 76
     1
176
     1
 77
     6
176
     1
 78
     2
176
     1
 67
     7
176
     1
 79
     5
176
     1
170
     0
176
     1
171
     0
176
     1
290
     0
176
     1
 93
        1
176
     1
 44
-50.0
176
     1
173
     0
176
     1
  0
VISUALSTYLE
  5
39
102
{ACAD_REACTORS
330
2A
102
}
330
2A
100
AcDbVisualStyle
  2
Facepattern
 70
    15
177
     2
291
     1
 71
     2
176
     1
 72
     2
176
     1
 73
     0
176
     1
 90
        0
176
     1
 40
-0.6
176
     1
 41
-30.0
176
     1
 62
     5
 63
     7
421
 16777215
176
     1
 74
     1
176
     1
 91
        4
176
     1
 64
     7
176
     1
 65
   257
176
     1
 75
     1
176
     1
175
     1
176
     1
 42
1.0
176
     1
 92
        8
176
     1
 66
     7
176
     1
 43
1.0
176
     1
 76
     1
176
     1
 77
     6
176
     1
 78
     2
176
     1
 67
     7
176
     1
 79
     5
176
     1
170
     0
176
     1
171
     0
176
     1
290
     0
176
     1
 93
        1
176
     1
 44
0.0
176
     1
173
     0
176
     1
  0
VISUALSTYLE
  5
2B
102
{ACAD_REACTORS
330
2A
102
}
330
2A
100
AcDbVisualStyle
  2
Flat
 70
     0
177
     2
291
     1
 71
     2
176
     1
 72
     1
176
     1
 73
     1
176
     1
 90
        2
176
     1
 40
-0.6
176
     1
 41
30.0
176
     1
 62
     5
 63
     7
421
 16777215
176
     1
 74
     0
176
     1
 91
        4
176
     1
 64
     7
176
     1
 65
   257
176
     1
 75
     1
176
     1
175
     1
176
     1
 42
1.0
176
     1
 92
        8
176
     1
 66
     7
176
     1
 43
1.0
176
     1
 76
     1
176
     1
 77
     6
176
     1
 78
     2
176
     1
 67
     7
176
     1
 79
     5
176
     1
170
     0
176
     1
171
     0
176
     1
290
     0
176
     1
 93
       13
176
     1
 44
0.0
176
     1
173
     0
176
     1
  0
VISUALSTYLE
  5
2C
102
{ACAD_REACTORS
330
2A
102
}
330
2A
100
AcDbVisualStyle
  2
FlatWithEdges
 70
     1
177
     2
291
     1
 71
     2
176
     1
 72
     1
176
     1
 73
     1
176
     1
 90
        2
176
     1
 40
-0.6
176
     1
 41
30.0
176
     1
 62
     5
 63
     7
421
 16777215
176
     1
 74
     1
176
     1
 91
        4
176
     1
 64
     7
176
     1
 65
   257
176
     1
 75
     1
176
     1
175
     1
176
     1
 42
1.0
176
     1
 92
        0
176
     1
 66
   257
176
     1
 43
1.0
176
     1
 76
     1
176
     1
 77
     6
176
     1
 78
     2
176
     1
 67
     7
176
     1
 79
     5
176
     1
170
     0
176
     1
171
     0
176
     1
290
     0
176
     1
 93
       13
176
     1
 44
0.0
176
     1
173
     0
176
     1
  0
VISUALSTYLE
  5
2D
102
{ACAD_REACTORS
330
2A
102
}
330
2A
100
AcDbVisualStyle
  2
Gouraud
 70
     2
177
     2
291
     1
 71
     2
176
     1
 72
     2
176
     1
 73
     1
176
     1
 90
        2
176
     1
 40
-0.6
176
     1
 41
30.0
176
     1
 62
     5
 63
     7
421
 16777215
176
     1
 74
     0
176
     1
 91
        4
176
     1
 64
     7
176
     1
 65
   257
176
     1
 75
     1
176
     1
175
     1
176
     1
 42
1.0
176
     1
 92
        0
176
     1
 66
     7
176
     1
 43
1.0
176
     1
 76
     1
176
     1
 77
     6
176
     1
 78
     2
176
     1
 67
     7
176
     1
 79
     5
176
     1
170
     0
176
     1
171
     0
176
     1
290
     0
176
     1
 93
       13
176
     1
 44
0.0
176
     1
173
     0
176
     1
  0
VISUALSTYLE
  5
2E
102
{ACAD_REACTORS
330
2A
102
}
330
2A
100
AcDbVisualStyle
  2
GouraudWithEdges
 70
     3
177
     2
291
     1
 71
     2
176
     1
 72
     2
176
     1
 73
     1
176
     1
 90
        2
176
     1
 40
-0.6
176
     1
 41
30.0
176
     1
 62
     5
 63
     7
421
 16777215
176
     1
 74
     1
176
     1
 91
        4
176
     1
 64
     7
176
     1
 65
   257
176
     1
 75
     1
176
     1
175
     1
176
     1
 42
1.0
176
     1
 92
        0
176
     1
 66
   257
176
     1
 43
1.0
176
     1
 76
     1
176
     1
 77
     6
176
     1
 78
     2
176
     1
 67
     7
176
     1
 79
     5
176
     1
170
     0
176
     1
171
     0
176
     1
290
     0
176
     1
 93
       13
176
     1
 44
0.0
176
     1
173
     0
176
     1
  0
VISUALSTYLE
  5
38
102
{ACAD_REACTORS
330
2A
102
}
330
2A
100
AcDbVisualStyle
  2
Linepattern
 70
    14
177
     2
291
     1
 71
     2
176
     1
 72
     2
176
     1
 73
     0
176
     1
 90
        0
176
     1
 40
-0.6
176
     1
 41
-30.0
176
     1
 62
     5
 63
     7
421
 16777215
176
     1
 74
     1
176
     1
 91
        4
176
     1
 64
     7
176
     1
 65
   257
176
     1
 75
     7
176
     1
175
     7
176
     1
 42
1.0
176
     1
 92
        8
176
     1
 66
     7
176
     1
 43
1.0
176
     1
 76
     1
176
     1
 77
     6
176
     1
 78
     2
176
     1
 67
     7
176
     1
 79
     5
176
     1
170
     0
176
     1
171
     0
176
     1
290
     0
176
     1
 93
        1
176
     1
 44
0.0
176
     1
173
     0
176
     1
  0
VISUALSTYLE
  5
33
102
{ACAD_REACTORS
330
2A
102
}
330
2A
100
AcDbVisualStyle
  2
Realistic
 70
     8
177
     2
291
     0
 71
     2
176
     1
 72
     2
176
     1
 73
     0
176
     1
 90
        0
176
     1
 40
-0.6
176
     1
 41
-30.0
176
     1
 62
     5
 63
     7
421
 16777215
176
     1
 74
     1
176
     1
 91
        0
176
     1
 64
     7
176
     1
 65
   257
176
     1
 75
     1
176
     1
175
     1
176
     1
 42
1.0
176
     1
 92
        8
176
     1
 66
     8
424
  7895160
176
     1
 43
1.0
176
     1
 76
     1
176
     1
 77
     6
176
     1
 78
     2
176
     1
 67
     7
176
     1
 79
     5
176
     1
170
     0
176
     1
171
     0
176
     1
290
     0
176
     1
 93
       13
176
     1
 44
0.0
176
     1
173
     0
176
     1
  0
VISUALSTYLE
  5
37
102
{ACAD_REACTORS
330
2A
102
}
330
2A
100
AcDbVisualStyle
  2
Thicken
 70
    13
177
     2
291
     1
 71
     2
176
     1
 72
     2
176
     1
 73
     0
176
     1
 90
        0
176
     1
 40
-0.6
176
     1
 41
-30.0
176
     1
 62
     5
 63
     7
421
 16777215
176
     1
 74
     1
176
     1
 91
        4
176
     1
 64
     7
176
     1
 65
   257
176
     1
 75
     1
176
     1
175
     1
176
     1
 42
1.0
176
     1
 92
       12
176
     1
 66
     7
176
     1
 43
1.0
176
     1
 76
     1
176
     1
 77
     6
176
     1
 78
     2
176
     1
 67
     7
176
     1
 79
     5
176
     1
170
     0
176
     1
171
     0
176
     1
290
     0
176
     1
 93
        1
176
     1
 44
0.0
176
     1
173
     0
176
     1
  0
ENDSEC
  0
EOF
